ISO-10303-21;
HEADER;
FILE_DESCRIPTION (( 'STEP AP214' ),
    '1' );
FILE_NAME ('343-PT100-C3.STEP',
    '2019-10-30T10:40:15',
    ( 'allectra' ),
    ( 'Microsoft' ),
    'SwSTEP 2.0',
    'SolidWorks 2014',
    '' );
FILE_SCHEMA (( 'AUTOMOTIVE_DESIGN' ));
ENDSEC;

DATA;
#1 = CYLINDRICAL_SURFACE ( 'NONE', #328, 0.09999999999999999200 ) ;
#2 = LINE ( 'NONE', #30, #323 ) ;
#3 = DIRECTION ( 'NONE',  ( 1.000000000000000000, 0.0000000000000000000, -0.0000000000000000000 ) ) ;
#4 = ORIENTED_EDGE ( 'NONE', *, *, #389, .F. ) ;
#5 = FACE_OUTER_BOUND ( 'NONE', #39, .T. ) ;
#6 = FACE_OUTER_BOUND ( 'NONE', #252, .T. ) ;
#7 = EDGE_LOOP ( 'NONE', ( #294, #17, #353, #360 ) ) ;
#8 = DIRECTION ( 'NONE',  ( 0.0000000000000000000, 0.0000000000000000000, -1.000000000000000000 ) ) ;
#9 = ORIENTED_EDGE ( 'NONE', *, *, #304, .T. ) ;
#10 = CIRCLE ( 'NONE', #174, 0.1000000000000000500 ) ;
#11 = AXIS2_PLACEMENT_3D ( 'NONE', #148, #123, #120 ) ;
#12 = AXIS2_PLACEMENT_3D ( 'NONE', #347, #25, #330 ) ;
#13 = COLOUR_RGB ( '',0.7921568627450980000, 0.8196078431372548800, 0.9333333333333333500 ) ;
#14 = DIRECTION ( 'NONE',  ( 1.000000000000000000, 0.0000000000000000000, 0.0000000000000000000 ) ) ;
#15 = PRODUCT_RELATED_PRODUCT_CATEGORY ( 'part', '', ( #386 ) ) ;
#16 = VERTEX_POINT ( 'NONE', #81 ) ;
#17 = ORIENTED_EDGE ( 'NONE', *, *, #304, .F. ) ;
#18 = AXIS2_PLACEMENT_3D ( 'NONE', #364, #237, #99 ) ;
#19 = DIRECTION ( 'NONE',  ( 1.000000000000000000, 8.673617379884035500E-017, 0.0000000000000000000 ) ) ;
#20 = EDGE_CURVE ( 'NONE', #318, #309, #175, .T. ) ;
#21 = DIRECTION ( 'NONE',  ( 0.0000000000000000000, 0.0000000000000000000, -1.000000000000000000 ) ) ;
#22 = AXIS2_PLACEMENT_3D ( 'NONE', #370, #146, #303 ) ;
#23 = ORIENTED_EDGE ( 'NONE', *, *, #379, .F. ) ;
#24 = PLANE ( 'NONE',  #18 ) ;
#25 = DIRECTION ( 'NONE',  ( -1.000000000000000000, 0.0000000000000000000, 0.0000000000000000000 ) ) ;
#26 = EDGE_LOOP ( 'NONE', ( #247, #241 ) ) ;
#27 = FACE_OUTER_BOUND ( 'NONE', #397, .T. ) ;
#28 = FACE_OUTER_BOUND ( 'NONE', #51, .T. ) ;
#29 = CARTESIAN_POINT ( 'NONE',  ( -2.500000000000000000, 0.6499999999999996900, 0.0000000000000000000 ) ) ;
#30 = CARTESIAN_POINT ( 'NONE',  ( -9.500000000000000000, 0.4999999999999993300, 1.250000000000000000 ) ) ;
#31 = APPLICATION_PROTOCOL_DEFINITION ( 'draft international standard', 'automotive_design', 1998, #77 ) ;
#32 = CARTESIAN_POINT ( 'NONE',  ( -9.500000000000000000, 0.4999999999999993300, 1.149999999999999900 ) ) ;
#33 = CARTESIAN_POINT ( 'NONE',  ( 0.0000000000000000000, 0.0000000000000000000, 1.600000000000000100 ) ) ;
#34 = LINE ( 'NONE', #147, #192 ) ;
#35 = CLOSED_SHELL ( 'NONE', ( #166, #256, #143, #199, #329, #124, #83, #186, #95, #207, #316, #344, #394 ) ) ;
#36 = VERTEX_POINT ( 'NONE', #103 ) ;
#37 = EDGE_CURVE ( 'NONE', #115, #152, #345, .T. ) ;
#38 = CARTESIAN_POINT ( 'NONE',  ( 0.0000000000000000000, 0.6499999999999999100, 0.0000000000000000000 ) ) ;
#39 = EDGE_LOOP ( 'NONE', ( #381, #280, #354, #140 ) ) ;
#40 = PLANE ( 'NONE',  #101 ) ;
#41 = DIRECTION ( 'NONE',  ( 0.0000000000000000000, 0.0000000000000000000, -1.000000000000000000 ) ) ;
#42 = VERTEX_POINT ( 'NONE', #196 ) ;
#43 = ORIENTED_EDGE ( 'NONE', *, *, #155, .F. ) ;
#44 = DIRECTION ( 'NONE',  ( -1.000000000000000000, -0.0000000000000000000, -0.0000000000000000000 ) ) ;
#45 = LINE ( 'NONE', #53, #261 ) ;
#46 = CARTESIAN_POINT ( 'NONE',  ( -2.500000000000000400, 0.4999999999999992800, 0.4500000000000000100 ) ) ;
#47 =( GEOMETRIC_REPRESENTATION_CONTEXT ( 3 ) GLOBAL_UNCERTAINTY_ASSIGNED_CONTEXT ( ( #177 ) ) GLOBAL_UNIT_ASSIGNED_CONTEXT ( ( #257, #97, #169 ) ) REPRESENTATION_CONTEXT ( 'NONE', 'WORKASPACE' ) );
#48 = SURFACE_STYLE_FILL_AREA ( #54 ) ;
#49 = CARTESIAN_POINT ( 'NONE',  ( -1.800000000000000000, -0.01666666666666645800, 0.0000000000000000000 ) ) ;
#50 = EDGE_CURVE ( 'NONE', #131, #36, #201, .T. ) ;
#51 = EDGE_LOOP ( 'NONE', ( #234, #130, #23, #315 ) ) ;
#52 = PRESENTATION_LAYER_ASSIGNMENT (  '', '', ( #149 ) ) ;
#53 = CARTESIAN_POINT ( 'NONE',  ( -2.500000000000000000, 0.6499999999999996900, 1.600000000000000100 ) ) ;
#54 = FILL_AREA_STYLE ('',( #259 ) ) ;
#55 = CARTESIAN_POINT ( 'NONE',  ( -9.500000000000000000, 0.4999999999999992800, 0.5500000000000000400 ) ) ;
#56 = DIRECTION ( 'NONE',  ( -1.000000000000000000, -8.673617379884035500E-017, 0.0000000000000000000 ) ) ;
#57 = CIRCLE ( 'NONE', #243, 0.1000000000000000500 ) ;
#58 = VECTOR ( 'NONE', #295, 1000.000000000000000 ) ;
#59 = CARTESIAN_POINT ( 'NONE',  ( 0.0000000000000000000, 0.0000000000000000000, 0.0000000000000000000 ) ) ;
#60 = CIRCLE ( 'NONE', #22, 0.9666666666666662300 ) ;
#61 = CARTESIAN_POINT ( 'NONE',  ( -2.500000000000000000, -3.061616997868383100E-016, 1.600000000000000100 ) ) ;
#62 = DIRECTION ( 'NONE',  ( 0.0000000000000000000, 0.0000000000000000000, -1.000000000000000000 ) ) ;
#63 = DIRECTION ( 'NONE',  ( -1.000000000000000000, 0.0000000000000000000, 0.0000000000000000000 ) ) ;
#64 = FACE_OUTER_BOUND ( 'NONE', #7, .T. ) ;
#65 = EDGE_CURVE ( 'NONE', #168, #279, #10, .T. ) ;
#66 = VERTEX_POINT ( 'NONE', #200 ) ;
#67 = ORIENTED_EDGE ( 'NONE', *, *, #204, .F. ) ;
#68 = ORIENTED_EDGE ( 'NONE', *, *, #89, .F. ) ;
#69 = DIRECTION ( 'NONE',  ( -1.000000000000000000, -1.224646799147353200E-016, 0.0000000000000000000 ) ) ;
#70 = AXIS2_PLACEMENT_3D ( 'NONE', #203, #333, #145 ) ;
#71 = PRESENTATION_STYLE_ASSIGNMENT (( #79 ) ) ;
#72 =( GEOMETRIC_REPRESENTATION_CONTEXT ( 3 ) GLOBAL_UNCERTAINTY_ASSIGNED_CONTEXT ( ( #74 ) ) GLOBAL_UNIT_ASSIGNED_CONTEXT ( ( #371, #132, #156 ) ) REPRESENTATION_CONTEXT ( 'NONE', 'WORKASPACE' ) );
#73 = COLOUR_RGB ( '',0.7921568627450980000, 0.8196078431372548800, 0.9333333333333333500 ) ;
#74 = UNCERTAINTY_MEASURE_WITH_UNIT (LENGTH_MEASURE( 1.000000000000000100E-005 ), #371, 'distance_accuracy_value', 'NONE');
#75 = APPLICATION_CONTEXT ( 'automotive_design' ) ;
#76 = MECHANICAL_DESIGN_GEOMETRIC_PRESENTATION_REPRESENTATION (  '', ( #149 ), #375 ) ;
#77 = APPLICATION_CONTEXT ( 'automotive_design' ) ;
#78 = AXIS2_PLACEMENT_3D ( 'NONE', #33, #167, #69 ) ;
#79 = SURFACE_STYLE_USAGE ( .BOTH. , #240 ) ;
#80 = ORIENTED_EDGE ( 'NONE', *, *, #281, .T. ) ;
#81 = CARTESIAN_POINT ( 'NONE',  ( -2.500000000000000400, 0.4999999999999992800, 0.3499999999999999800 ) ) ;
#82 = CARTESIAN_POINT ( 'NONE',  ( -9.500000000000000000, 0.4999999999999992800, 0.5500000000000000400 ) ) ;
#83 = ADVANCED_FACE ( 'NONE', ( #27 ), #24, .T. ) ;
#84 = AXIS2_PLACEMENT_3D ( 'NONE', #334, #335, #117 ) ;
#85 = CIRCLE ( 'NONE', #267, 0.1000000000000000500 ) ;
#86 = CARTESIAN_POINT ( 'NONE',  ( -9.500000000000000000, 0.4999999999999992800, 0.4500000000000000100 ) ) ;
#87 = EDGE_LOOP ( 'NONE', ( #284, #228, #349, #159 ) ) ;
#88 = CARTESIAN_POINT ( 'NONE',  ( -9.500000000000000000, 0.4999999999999993300, 1.050000000000000000 ) ) ;
#89 = EDGE_CURVE ( 'NONE', #235, #157, #129, .T. ) ;
#90 = DIRECTION ( 'NONE',  ( -1.000000000000000000, -0.0000000000000000000, -0.0000000000000000000 ) ) ;
#91 = DIRECTION ( 'NONE',  ( 1.000000000000000000, -0.0000000000000000000, -0.0000000000000000000 ) ) ;
#92 = ORIENTED_EDGE ( 'NONE', *, *, #113, .T. ) ;
#93 = LINE ( 'NONE', #82, #254 ) ;
#94 = CARTESIAN_POINT ( 'NONE',  ( -2.500000000000000400, 0.4999999999999992800, 0.5500000000000000400 ) ) ;
#95 = ADVANCED_FACE ( 'NONE', ( #98 ), #1, .T. ) ;
#96 = PRODUCT_DEFINITION_FORMATION_WITH_SPECIFIED_SOURCE ( 'ANY', '', #386, .NOT_KNOWN. ) ;
#97 =( NAMED_UNIT ( * ) PLANE_ANGLE_UNIT ( ) SI_UNIT ( $, .RADIAN. ) );
#98 = FACE_OUTER_BOUND ( 'NONE', #355, .T. ) ;
#99 = DIRECTION ( 'NONE',  ( 1.000000000000000000, 0.0000000000000000000, -0.0000000000000000000 ) ) ;
#100 = CYLINDRICAL_SURFACE ( 'NONE', #343, 0.09999999999999999200 ) ;
#101 = AXIS2_PLACEMENT_3D ( 'NONE', #61, #14, #21 ) ;
#102 = SURFACE_STYLE_FILL_AREA ( #271 ) ;
#103 = CARTESIAN_POINT ( 'NONE',  ( 0.0000000000000000000, 0.0000000000000000000, 0.0000000000000000000 ) ) ;
#104 = CARTESIAN_POINT ( 'NONE',  ( -1.100000000000000300, 0.6499999999999999100, 0.0000000000000000000 ) ) ;
#105 = EDGE_CURVE ( 'NONE', #142, #16, #291, .T. ) ;
#106 = VECTOR ( 'NONE', #358, 1000.000000000000000 ) ;
#107 = DIRECTION ( 'NONE',  ( 1.000000000000000000, -0.0000000000000000000, -0.0000000000000000000 ) ) ;
#108 = DIRECTION ( 'NONE',  ( 0.0000000000000000000, 0.0000000000000000000, -1.000000000000000000 ) ) ;
#109 = LINE ( 'NONE', #299, #301 ) ;
#110 = DIRECTION ( 'NONE',  ( 1.000000000000000000, -0.0000000000000000000, -0.0000000000000000000 ) ) ;
#111 = DIRECTION ( 'NONE',  ( 0.0000000000000000000, 1.000000000000000000, 0.0000000000000000000 ) ) ;
#112 = EDGE_CURVE ( 'NONE', #152, #36, #209, .T. ) ;
#113 = EDGE_CURVE ( 'NONE', #152, #235, #138, .T. ) ;
#114 = EDGE_CURVE ( 'NONE', #279, #168, #189, .T. ) ;
#115 = VERTEX_POINT ( 'NONE', #264 ) ;
#116 = EDGE_CURVE ( 'NONE', #66, #133, #322, .T. ) ;
#117 = DIRECTION ( 'NONE',  ( 0.0000000000000000000, 0.0000000000000000000, 1.000000000000000000 ) ) ;
#118 = PLANE ( 'NONE',  #376 ) ;
#119 = VECTOR ( 'NONE', #111, 1000.000000000000000 ) ;
#120 = DIRECTION ( 'NONE',  ( -1.000000000000000000, 0.0000000000000000000, 0.0000000000000000000 ) ) ;
#121 = EDGE_CURVE ( 'NONE', #115, #131, #34, .T. ) ;
#122 = CARTESIAN_POINT ( 'NONE',  ( -2.500000000000000000, -3.061616997868383100E-016, 0.0000000000000000000 ) ) ;
#123 = DIRECTION ( 'NONE',  ( 0.0000000000000000000, 0.0000000000000000000, -1.000000000000000000 ) ) ;
#124 = ADVANCED_FACE ( 'NONE', ( #6 ), #153, .F. ) ;
#125 = ORIENTED_EDGE ( 'NONE', *, *, #223, .F. ) ;
#126 = LINE ( 'NONE', #150, #350 ) ;
#127 = CARTESIAN_POINT ( 'NONE',  ( -2.500000000000000400, 0.4999999999999993300, 1.149999999999999900 ) ) ;
#128 = PLANE ( 'NONE',  #141 ) ;
#129 = LINE ( 'NONE', #210, #319 ) ;
#130 = ORIENTED_EDGE ( 'NONE', *, *, #121, .F. ) ;
#131 = VERTEX_POINT ( 'NONE', #122 ) ;
#132 =( NAMED_UNIT ( * ) PLANE_ANGLE_UNIT ( ) SI_UNIT ( $, .RADIAN. ) );
#133 = VERTEX_POINT ( 'NONE', #104 ) ;
#134 = LINE ( 'NONE', #88, #378 ) ;
#135 = ORIENTED_EDGE ( 'NONE', *, *, #277, .F. ) ;
#136 = DIRECTION ( 'NONE',  ( 0.0000000000000000000, 0.0000000000000000000, 1.000000000000000000 ) ) ;
#137 = CYLINDRICAL_SURFACE ( 'NONE', #11, 0.9666666666666664500 ) ;
#138 = LINE ( 'NONE', #377, #119 ) ;
#139 = DIRECTION ( 'NONE',  ( -1.000000000000000000, 0.0000000000000000000, 0.0000000000000000000 ) ) ;
#140 = ORIENTED_EDGE ( 'NONE', *, *, #222, .F. ) ;
#141 = AXIS2_PLACEMENT_3D ( 'NONE', #336, #368, #19 ) ;
#142 = VERTEX_POINT ( 'NONE', #94 ) ;
#143 = ADVANCED_FACE ( 'NONE', ( #263, #28, #183 ), #40, .F. ) ;
#144 = ORIENTED_EDGE ( 'NONE', *, *, #226, .T. ) ;
#145 = DIRECTION ( 'NONE',  ( 1.000000000000000000, 0.0000000000000000000, 0.0000000000000000000 ) ) ;
#146 = DIRECTION ( 'NONE',  ( -0.0000000000000000000, 0.0000000000000000000, -1.000000000000000000 ) ) ;
#147 = CARTESIAN_POINT ( 'NONE',  ( -2.500000000000000000, -3.061616997868383100E-016, 1.600000000000000100 ) ) ;
#148 = CARTESIAN_POINT ( 'NONE',  ( -1.800000000000000000, -0.01666666666666645800, 3.031782106327635300 ) ) ;
#149 = STYLED_ITEM ( 'NONE', ( #71 ), #151 ) ;
#150 = CARTESIAN_POINT ( 'NONE',  ( 0.0000000000000000000, 0.6499999999999999100, 1.600000000000000100 ) ) ;
#151 = MANIFOLD_SOLID_BREP ( 'Aufsatz-Linear austragen4', #35 ) ;
#152 = VERTEX_POINT ( 'NONE', #390 ) ;
#153 = PLANE ( 'NONE',  #78 ) ;
#154 = VECTOR ( 'NONE', #305, 1000.000000000000000 ) ;
#155 = EDGE_CURVE ( 'NONE', #309, #318, #57, .T. ) ;
#156 =( NAMED_UNIT ( * ) SI_UNIT ( $, .STERADIAN. ) SOLID_ANGLE_UNIT ( ) );
#157 = VERTEX_POINT ( 'NONE', #276 ) ;
#158 = VERTEX_POINT ( 'NONE', #29 ) ;
#159 = ORIENTED_EDGE ( 'NONE', *, *, #372, .F. ) ;
#160 = SURFACE_SIDE_STYLE ('',( #102 ) ) ;
#161 = PRESENTATION_STYLE_ASSIGNMENT (( #382 ) ) ;
#162 = ORIENTED_EDGE ( 'NONE', *, *, #37, .T. ) ;
#163 = DIRECTION ( 'NONE',  ( 1.000000000000000000, -0.0000000000000000000, -0.0000000000000000000 ) ) ;
#164 = CARTESIAN_POINT ( 'NONE',  ( 0.0000000000000000000, 0.0000000000000000000, 0.0000000000000000000 ) ) ;
#165 = EDGE_CURVE ( 'NONE', #36, #66, #109, .T. ) ;
#166 = ADVANCED_FACE ( 'NONE', ( #290 ), #342, .T. ) ;
#167 = DIRECTION ( 'NONE',  ( -1.224646799147353200E-016, 1.000000000000000000, 0.0000000000000000000 ) ) ;
#168 = VERTEX_POINT ( 'NONE', #227 ) ;
#169 =( NAMED_UNIT ( * ) SI_UNIT ( $, .STERADIAN. ) SOLID_ANGLE_UNIT ( ) );
#170 = CIRCLE ( 'NONE', #211, 0.09999999999999999200 ) ;
#171 = DIRECTION ( 'NONE',  ( -0.0000000000000000000, -0.0000000000000000000, -1.000000000000000000 ) ) ;
#172 =( NAMED_UNIT ( * ) PLANE_ANGLE_UNIT ( ) SI_UNIT ( $, .RADIAN. ) );
#173 = PRESENTATION_LAYER_ASSIGNMENT (  '', '', ( #289 ) ) ;
#174 = AXIS2_PLACEMENT_3D ( 'NONE', #219, #300, #278 ) ;
#175 = CIRCLE ( 'NONE', #384, 0.1000000000000000500 ) ;
#176 = VECTOR ( 'NONE', #221, 1000.000000000000000 ) ;
#177 = UNCERTAINTY_MEASURE_WITH_UNIT (LENGTH_MEASURE( 1.000000000000000100E-005 ), #257, 'distance_accuracy_value', 'NONE');
#178 = CARTESIAN_POINT ( 'NONE',  ( -2.500000000000000400, 0.4999999999999993300, 1.149999999999999900 ) ) ;
#179 = ORIENTED_EDGE ( 'NONE', *, *, #226, .F. ) ;
#180 = ORIENTED_EDGE ( 'NONE', *, *, #37, .F. ) ;
#181 = VECTOR ( 'NONE', #307, 1000.000000000000000 ) ;
#182 = CARTESIAN_POINT ( 'NONE',  ( 0.0000000000000000000, 0.6499999999999999100, 1.600000000000000100 ) ) ;
#183 = FACE_BOUND ( 'NONE', #190, .T. ) ;
#184 = ORIENTED_EDGE ( 'NONE', *, *, #313, .F. ) ;
#185 = FACE_OUTER_BOUND ( 'NONE', #249, .T. ) ;
#186 = ADVANCED_FACE ( 'NONE', ( #248 ), #391, .F. ) ;
#187 = DIRECTION ( 'NONE',  ( -1.000000000000000000, 0.0000000000000000000, 0.0000000000000000000 ) ) ;
#188 = VERTEX_POINT ( 'NONE', #194 ) ;
#189 = CIRCLE ( 'NONE', #215, 0.1000000000000000500 ) ;
#190 = EDGE_LOOP ( 'NONE', ( #43, #327 ) ) ;
#191 = MECHANICAL_DESIGN_GEOMETRIC_PRESENTATION_REPRESENTATION (  '', ( #289 ), #47 ) ;
#192 = VECTOR ( 'NONE', #326, 1000.000000000000000 ) ;
#193 = DIRECTION ( 'NONE',  ( -1.000000000000000000, 0.0000000000000000000, 0.0000000000000000000 ) ) ;
#194 = CARTESIAN_POINT ( 'NONE',  ( -9.500000000000000000, 0.4999999999999992800, 0.3499999999999999200 ) ) ;
#195 = ORIENTED_EDGE ( 'NONE', *, *, #114, .T. ) ;
#196 = CARTESIAN_POINT ( 'NONE',  ( -2.500000000000000000, 0.6499999999999996900, 1.600000000000000100 ) ) ;
#197 = CARTESIAN_POINT ( 'NONE',  ( 0.0000000000000000000, 0.0000000000000000000, 1.600000000000000100 ) ) ;
#198 = PRODUCT_CONTEXT ( 'NONE', #77, 'mechanical' ) ;
#199 = ADVANCED_FACE ( 'NONE', ( #64 ), #118, .F. ) ;
#200 = CARTESIAN_POINT ( 'NONE',  ( 0.0000000000000000000, 0.6499999999999999100, 0.0000000000000000000 ) ) ;
#201 = LINE ( 'NONE', #59, #292 ) ;
#202 = ORIENTED_EDGE ( 'NONE', *, *, #121, .T. ) ;
#203 = CARTESIAN_POINT ( 'NONE',  ( 0.0000000000000000000, 0.0000000000000000000, 0.0000000000000000000 ) ) ;
#204 = EDGE_CURVE ( 'NONE', #158, #133, #218, .T. ) ;
#205 = DIRECTION ( 'NONE',  ( 0.0000000000000000000, 0.0000000000000000000, 1.000000000000000000 ) ) ;
#206 = ORIENTED_EDGE ( 'NONE', *, *, #105, .F. ) ;
#207 = ADVANCED_FACE ( 'NONE', ( #339 ), #287, .T. ) ;
#208 = DIRECTION ( 'NONE',  ( 1.000000000000000000, -0.0000000000000000000, -0.0000000000000000000 ) ) ;
#209 = LINE ( 'NONE', #244, #246 ) ;
#210 = CARTESIAN_POINT ( 'NONE',  ( 0.0000000000000000000, 0.6499999999999999100, 1.600000000000000100 ) ) ;
#211 = AXIS2_PLACEMENT_3D ( 'NONE', #369, #44, #108 ) ;
#212 = DIRECTION ( 'NONE',  ( 1.000000000000000000, -0.0000000000000000000, -0.0000000000000000000 ) ) ;
#213 = FACE_OUTER_BOUND ( 'NONE', #388, .T. ) ;
#214 = ORIENTED_EDGE ( 'NONE', *, *, #65, .F. ) ;
#215 = AXIS2_PLACEMENT_3D ( 'NONE', #321, #193, #366 ) ;
#216 = SHAPE_DEFINITION_REPRESENTATION ( #258, #217 ) ;
#217 = ADVANCED_BREP_SHAPE_REPRESENTATION ( '343-PT100-C3', ( #151, #70 ), #72 ) ;
#218 = CIRCLE ( 'NONE', #242, 0.9666666666666664500 ) ;
#219 = CARTESIAN_POINT ( 'NONE',  ( -9.500000000000000000, 0.4999999999999993300, 1.149999999999999900 ) ) ;
#220 = ORIENTED_EDGE ( 'NONE', *, *, #65, .T. ) ;
#221 = DIRECTION ( 'NONE',  ( -0.0000000000000000000, -1.000000000000000000, -0.0000000000000000000 ) ) ;
#222 = EDGE_CURVE ( 'NONE', #188, #16, #337, .T. ) ;
#223 = EDGE_CURVE ( 'NONE', #338, #142, #93, .T. ) ;
#224 =( LENGTH_UNIT ( ) NAMED_UNIT ( * ) SI_UNIT ( .MILLI., .METRE. ) );
#225 = FILL_AREA_STYLE_COLOUR ( '', #73 ) ;
#226 = EDGE_CURVE ( 'NONE', #42, #157, #60, .T. ) ;
#227 = CARTESIAN_POINT ( 'NONE',  ( -9.500000000000000000, 0.4999999999999993300, 1.050000000000000000 ) ) ;
#228 = ORIENTED_EDGE ( 'NONE', *, *, #277, .T. ) ;
#229 = DIRECTION ( 'NONE',  ( 0.0000000000000000000, -0.0000000000000000000, 1.000000000000000000 ) ) ;
#230 = CARTESIAN_POINT ( 'NONE',  ( -9.500000000000000000, 0.4999999999999992800, 0.4500000000000000100 ) ) ;
#231 = EDGE_CURVE ( 'NONE', #188, #338, #85, .T. ) ;
#232 = DIRECTION ( 'NONE',  ( 0.0000000000000000000, 1.000000000000000000, 0.0000000000000000000 ) ) ;
#233 = CARTESIAN_POINT ( 'NONE',  ( -9.500000000000000000, 0.4999999999999993300, 1.250000000000000000 ) ) ;
#234 = ORIENTED_EDGE ( 'NONE', *, *, #313, .T. ) ;
#235 = VERTEX_POINT ( 'NONE', #182 ) ;
#236 = CARTESIAN_POINT ( 'NONE',  ( -9.500000000000000000, 0.4999999999999992800, 0.4500000000000000100 ) ) ;
#237 = DIRECTION ( 'NONE',  ( 0.0000000000000000000, -0.0000000000000000000, 1.000000000000000000 ) ) ;
#238 = EDGE_LOOP ( 'NONE', ( #135, #214, #245, #288 ) ) ;
#239 = CARTESIAN_POINT ( 'NONE',  ( -2.500000000000000400, 0.4999999999999993300, 1.050000000000000000 ) ) ;
#240 = SURFACE_SIDE_STYLE ('',( #48 ) ) ;
#241 = ORIENTED_EDGE ( 'NONE', *, *, #251, .T. ) ;
#242 = AXIS2_PLACEMENT_3D ( 'NONE', #49, #41, #139 ) ;
#243 = AXIS2_PLACEMENT_3D ( 'NONE', #127, #387, #385 ) ;
#244 = CARTESIAN_POINT ( 'NONE',  ( 0.0000000000000000000, 0.0000000000000000000, 1.600000000000000100 ) ) ;
#245 = ORIENTED_EDGE ( 'NONE', *, *, #372, .T. ) ;
#246 = VECTOR ( 'NONE', #171, 1000.000000000000000 ) ;
#247 = ORIENTED_EDGE ( 'NONE', *, *, #231, .T. ) ;
#248 = FACE_OUTER_BOUND ( 'NONE', #262, .T. ) ;
#249 = EDGE_LOOP ( 'NONE', ( #4, #144, #80, #67 ) ) ;
#250 = FACE_OUTER_BOUND ( 'NONE', #283, .T. ) ;
#251 = EDGE_CURVE ( 'NONE', #338, #188, #312, .T. ) ;
#252 = EDGE_LOOP ( 'NONE', ( #392, #306, #180, #202 ) ) ;
#253 = AXIS2_PLACEMENT_3D ( 'NONE', #317, #91, #62 ) ;
#254 = VECTOR ( 'NONE', #163, 1000.000000000000000 ) ;
#255 = LINE ( 'NONE', #352, #176 ) ;
#256 = ADVANCED_FACE ( 'NONE', ( #5 ), #100, .T. ) ;
#257 =( LENGTH_UNIT ( ) NAMED_UNIT ( * ) SI_UNIT ( .MILLI., .METRE. ) );
#258 = PRODUCT_DEFINITION_SHAPE ( 'NONE', 'NONE',  #367 ) ;
#259 = FILL_AREA_STYLE_COLOUR ( '', #13 ) ;
#260 = ORIENTED_EDGE ( 'NONE', *, *, #50, .F. ) ;
#261 = VECTOR ( 'NONE', #346, 1000.000000000000000 ) ;
#262 = EDGE_LOOP ( 'NONE', ( #274, #260, #184, #293, #298 ) ) ;
#263 = FACE_BOUND ( 'NONE', #310, .T. ) ;
#264 = CARTESIAN_POINT ( 'NONE',  ( -2.500000000000000000, -3.061616997868383100E-016, 1.600000000000000100 ) ) ;
#265 = CARTESIAN_POINT ( 'NONE',  ( -1.100000000000000100, 0.6499999999999998000, 3.031782106327635300 ) ) ;
#266 = DIRECTION ( 'NONE',  ( -0.0000000000000000000, -0.0000000000000000000, -1.000000000000000000 ) ) ;
#267 = AXIS2_PLACEMENT_3D ( 'NONE', #86, #187, #136 ) ;
#268 = DIRECTION ( 'NONE',  ( 0.0000000000000000000, 0.0000000000000000000, -1.000000000000000000 ) ) ;
#269 = CYLINDRICAL_SURFACE ( 'NONE', #308, 0.1000000000000000500 ) ;
#270 = DIRECTION ( 'NONE',  ( -1.000000000000000000, 0.0000000000000000000, 0.0000000000000000000 ) ) ;
#271 = FILL_AREA_STYLE ('',( #225 ) ) ;
#272 = DIRECTION ( 'NONE',  ( 0.0000000000000000000, 0.0000000000000000000, -1.000000000000000000 ) ) ;
#273 = LINE ( 'NONE', #348, #181 ) ;
#274 = ORIENTED_EDGE ( 'NONE', *, *, #165, .F. ) ;
#275 = ORIENTED_EDGE ( 'NONE', *, *, #379, .T. ) ;
#276 = CARTESIAN_POINT ( 'NONE',  ( -1.100000000000000300, 0.6499999999999999100, 1.600000000000000100 ) ) ;
#277 = EDGE_CURVE ( 'NONE', #279, #318, #2, .T. ) ;
#278 = DIRECTION ( 'NONE',  ( 0.0000000000000000000, 0.0000000000000000000, 1.000000000000000000 ) ) ;
#279 = VERTEX_POINT ( 'NONE', #233 ) ;
#280 = ORIENTED_EDGE ( 'NONE', *, *, #223, .T. ) ;
#281 = EDGE_CURVE ( 'NONE', #157, #133, #302, .T. ) ;
#282 = DIRECTION ( 'NONE',  ( 0.0000000000000000000, 0.0000000000000000000, -1.000000000000000000 ) ) ;
#283 = EDGE_LOOP ( 'NONE', ( #220, #195 ) ) ;
#284 = ORIENTED_EDGE ( 'NONE', *, *, #114, .F. ) ;
#285 = DIRECTION ( 'NONE',  ( 0.0000000000000000000, 0.0000000000000000000, -1.000000000000000000 ) ) ;
#286 = PLANE ( 'NONE',  #331 ) ;
#287 = PLANE ( 'NONE',  #12 ) ;
#288 = ORIENTED_EDGE ( 'NONE', *, *, #155, .T. ) ;
#289 = STYLED_ITEM ( 'NONE', ( #161 ), #217 ) ;
#290 = FACE_OUTER_BOUND ( 'NONE', #87, .T. ) ;
#291 = CIRCLE ( 'NONE', #363, 0.09999999999999999200 ) ;
#292 = VECTOR ( 'NONE', #311, 1000.000000000000000 ) ;
#293 = ORIENTED_EDGE ( 'NONE', *, *, #204, .T. ) ;
#294 = ORIENTED_EDGE ( 'NONE', *, *, #165, .T. ) ;
#295 = DIRECTION ( 'NONE',  ( -1.000000000000000000, -8.673617379884035500E-017, 0.0000000000000000000 ) ) ;
#296 = CARTESIAN_POINT ( 'NONE',  ( 0.0000000000000000000, 0.0000000000000000000, 1.600000000000000100 ) ) ;
#297 = UNCERTAINTY_MEASURE_WITH_UNIT (LENGTH_MEASURE( 1.000000000000000100E-005 ), #224, 'distance_accuracy_value', 'NONE');
#298 = ORIENTED_EDGE ( 'NONE', *, *, #116, .F. ) ;
#299 = CARTESIAN_POINT ( 'NONE',  ( 0.0000000000000000000, 0.0000000000000000000, 0.0000000000000000000 ) ) ;
#300 = DIRECTION ( 'NONE',  ( -1.000000000000000000, 0.0000000000000000000, 0.0000000000000000000 ) ) ;
#301 = VECTOR ( 'NONE', #232, 1000.000000000000000 ) ;
#302 = LINE ( 'NONE', #265, #361 ) ;
#303 = DIRECTION ( 'NONE',  ( 1.000000000000000000, 1.777016707274194900E-015, 0.0000000000000000000 ) ) ;
#304 = EDGE_CURVE ( 'NONE', #235, #66, #126, .T. ) ;
#305 = DIRECTION ( 'NONE',  ( 1.000000000000000000, -0.0000000000000000000, -0.0000000000000000000 ) ) ;
#306 = ORIENTED_EDGE ( 'NONE', *, *, #112, .F. ) ;
#307 = DIRECTION ( 'NONE',  ( -0.0000000000000000000, -1.000000000000000000, -0.0000000000000000000 ) ) ;
#308 = AXIS2_PLACEMENT_3D ( 'NONE', #32, #395, #8 ) ;
#309 = VERTEX_POINT ( 'NONE', #239 ) ;
#310 = EDGE_LOOP ( 'NONE', ( #393, #206 ) ) ;
#311 = DIRECTION ( 'NONE',  ( 1.000000000000000000, 1.224646799147353200E-016, -0.0000000000000000000 ) ) ;
#312 = CIRCLE ( 'NONE', #84, 0.1000000000000000500 ) ;
#313 = EDGE_CURVE ( 'NONE', #158, #131, #273, .T. ) ;
#314 = ORIENTED_EDGE ( 'NONE', *, *, #222, .T. ) ;
#315 = ORIENTED_EDGE ( 'NONE', *, *, #389, .T. ) ;
#316 = ADVANCED_FACE ( 'NONE', ( #320 ), #269, .T. ) ;
#317 = CARTESIAN_POINT ( 'NONE',  ( -9.500000000000000000, 0.4999999999999993300, 1.149999999999999900 ) ) ;
#318 = VERTEX_POINT ( 'NONE', #383 ) ;
#319 = VECTOR ( 'NONE', #56, 1000.000000000000000 ) ;
#320 = FACE_OUTER_BOUND ( 'NONE', #238, .T. ) ;
#321 = CARTESIAN_POINT ( 'NONE',  ( -9.500000000000000000, 0.4999999999999993300, 1.149999999999999900 ) ) ;
#322 = LINE ( 'NONE', #38, #58 ) ;
#323 = VECTOR ( 'NONE', #208, 1000.000000000000000 ) ;
#324 = CARTESIAN_POINT ( 'NONE',  ( -9.500000000000000000, 0.4999999999999993300, 1.149999999999999900 ) ) ;
#325 = EDGE_CURVE ( 'NONE', #16, #142, #170, .T. ) ;
#326 = DIRECTION ( 'NONE',  ( -0.0000000000000000000, -0.0000000000000000000, -1.000000000000000000 ) ) ;
#327 = ORIENTED_EDGE ( 'NONE', *, *, #20, .F. ) ;
#328 = AXIS2_PLACEMENT_3D ( 'NONE', #236, #212, #268 ) ;
#329 = ADVANCED_FACE ( 'NONE', ( #213 ), #128, .F. ) ;
#330 = DIRECTION ( 'NONE',  ( 0.0000000000000000000, 0.0000000000000000000, 1.000000000000000000 ) ) ;
#331 = AXIS2_PLACEMENT_3D ( 'NONE', #324, #63, #373 ) ;
#332 = ORIENTED_EDGE ( 'NONE', *, *, #89, .T. ) ;
#333 = DIRECTION ( 'NONE',  ( 0.0000000000000000000, 0.0000000000000000000, 1.000000000000000000 ) ) ;
#334 = CARTESIAN_POINT ( 'NONE',  ( -9.500000000000000000, 0.4999999999999992800, 0.4500000000000000100 ) ) ;
#335 = DIRECTION ( 'NONE',  ( -1.000000000000000000, 0.0000000000000000000, 0.0000000000000000000 ) ) ;
#336 = CARTESIAN_POINT ( 'NONE',  ( 0.0000000000000000000, 0.6499999999999999100, 1.600000000000000100 ) ) ;
#337 = LINE ( 'NONE', #359, #154 ) ;
#338 = VERTEX_POINT ( 'NONE', #55 ) ;
#339 = FACE_OUTER_BOUND ( 'NONE', #26, .T. ) ;
#340 = APPLICATION_PROTOCOL_DEFINITION ( 'draft international standard', 'automotive_design', 1998, #75 ) ;
#341 = ORIENTED_EDGE ( 'NONE', *, *, #325, .T. ) ;
#342 = CYLINDRICAL_SURFACE ( 'NONE', #253, 0.1000000000000000500 ) ;
#343 = AXIS2_PLACEMENT_3D ( 'NONE', #230, #110, #396 ) ;
#344 = ADVANCED_FACE ( 'NONE', ( #250 ), #286, .T. ) ;
#345 = LINE ( 'NONE', #197, #106 ) ;
#346 = DIRECTION ( 'NONE',  ( -0.0000000000000000000, -0.0000000000000000000, -1.000000000000000000 ) ) ;
#347 = CARTESIAN_POINT ( 'NONE',  ( -9.500000000000000000, 0.4999999999999992800, 0.4500000000000000100 ) ) ;
#348 = CARTESIAN_POINT ( 'NONE',  ( -2.500000000000000000, -3.061616997868383100E-016, 0.0000000000000000000 ) ) ;
#349 = ORIENTED_EDGE ( 'NONE', *, *, #20, .T. ) ;
#350 = VECTOR ( 'NONE', #266, 1000.000000000000000 ) ;
#351 = PRODUCT_DEFINITION_CONTEXT ( 'detailed design', #75, 'design' ) ;
#352 = CARTESIAN_POINT ( 'NONE',  ( -2.500000000000000000, -3.061616997868383100E-016, 1.600000000000000100 ) ) ;
#353 = ORIENTED_EDGE ( 'NONE', *, *, #113, .F. ) ;
#354 = ORIENTED_EDGE ( 'NONE', *, *, #105, .T. ) ;
#355 = EDGE_LOOP ( 'NONE', ( #125, #374, #314, #341 ) ) ;
#356 = ORIENTED_EDGE ( 'NONE', *, *, #281, .F. ) ;
#357 = AXIS2_PLACEMENT_3D ( 'NONE', #164, #229, #3 ) ;
#358 = DIRECTION ( 'NONE',  ( 1.000000000000000000, 1.224646799147353200E-016, -0.0000000000000000000 ) ) ;
#359 = CARTESIAN_POINT ( 'NONE',  ( -9.500000000000000000, 0.4999999999999992800, 0.3499999999999999800 ) ) ;
#360 = ORIENTED_EDGE ( 'NONE', *, *, #112, .T. ) ;
#361 = VECTOR ( 'NONE', #272, 1000.000000000000000 ) ;
#362 =( NAMED_UNIT ( * ) SI_UNIT ( $, .STERADIAN. ) SOLID_ANGLE_UNIT ( ) );
#363 = AXIS2_PLACEMENT_3D ( 'NONE', #46, #90, #282 ) ;
#364 = CARTESIAN_POINT ( 'NONE',  ( 0.0000000000000000000, 0.0000000000000000000, 1.600000000000000100 ) ) ;
#365 = DIRECTION ( 'NONE',  ( -1.000000000000000000, -0.0000000000000000000, -0.0000000000000000000 ) ) ;
#366 = DIRECTION ( 'NONE',  ( 0.0000000000000000000, 0.0000000000000000000, 1.000000000000000000 ) ) ;
#367 = PRODUCT_DEFINITION ( 'UNKNOWN', '', #96, #351 ) ;
#368 = DIRECTION ( 'NONE',  ( 8.673617379884035500E-017, -1.000000000000000000, 0.0000000000000000000 ) ) ;
#369 = CARTESIAN_POINT ( 'NONE',  ( -2.500000000000000400, 0.4999999999999992800, 0.4500000000000000100 ) ) ;
#370 = CARTESIAN_POINT ( 'NONE',  ( -1.800000000000000000, -0.01666666666666645800, 1.600000000000000100 ) ) ;
#371 =( LENGTH_UNIT ( ) NAMED_UNIT ( * ) SI_UNIT ( .MILLI., .METRE. ) );
#372 = EDGE_CURVE ( 'NONE', #168, #309, #134, .T. ) ;
#373 = DIRECTION ( 'NONE',  ( 0.0000000000000000000, 0.0000000000000000000, 1.000000000000000000 ) ) ;
#374 = ORIENTED_EDGE ( 'NONE', *, *, #231, .F. ) ;
#375 =( GEOMETRIC_REPRESENTATION_CONTEXT ( 3 ) GLOBAL_UNCERTAINTY_ASSIGNED_CONTEXT ( ( #297 ) ) GLOBAL_UNIT_ASSIGNED_CONTEXT ( ( #224, #172, #362 ) ) REPRESENTATION_CONTEXT ( 'NONE', 'WORKASPACE' ) );
#376 = AXIS2_PLACEMENT_3D ( 'NONE', #296, #270, #205 ) ;
#377 = CARTESIAN_POINT ( 'NONE',  ( 0.0000000000000000000, 0.0000000000000000000, 1.600000000000000100 ) ) ;
#378 = VECTOR ( 'NONE', #107, 1000.000000000000000 ) ;
#379 = EDGE_CURVE ( 'NONE', #42, #115, #255, .T. ) ;
#380 = ORIENTED_EDGE ( 'NONE', *, *, #116, .T. ) ;
#381 = ORIENTED_EDGE ( 'NONE', *, *, #251, .F. ) ;
#382 = SURFACE_STYLE_USAGE ( .BOTH. , #160 ) ;
#383 = CARTESIAN_POINT ( 'NONE',  ( -2.500000000000000400, 0.4999999999999993300, 1.250000000000000000 ) ) ;
#384 = AXIS2_PLACEMENT_3D ( 'NONE', #178, #365, #285 ) ;
#385 = DIRECTION ( 'NONE',  ( 0.0000000000000000000, 0.0000000000000000000, -1.000000000000000000 ) ) ;
#386 = PRODUCT ( '343-PT100-C3', '343-PT100-C3', '', ( #198 ) ) ;
#387 = DIRECTION ( 'NONE',  ( -1.000000000000000000, -0.0000000000000000000, -0.0000000000000000000 ) ) ;
#388 = EDGE_LOOP ( 'NONE', ( #380, #356, #68, #9 ) ) ;
#389 = EDGE_CURVE ( 'NONE', #42, #158, #45, .T. ) ;
#390 = CARTESIAN_POINT ( 'NONE',  ( 0.0000000000000000000, 0.0000000000000000000, 1.600000000000000100 ) ) ;
#391 = PLANE ( 'NONE',  #357 ) ;
#392 = ORIENTED_EDGE ( 'NONE', *, *, #50, .T. ) ;
#393 = ORIENTED_EDGE ( 'NONE', *, *, #325, .F. ) ;
#394 = ADVANCED_FACE ( 'NONE', ( #185 ), #137, .T. ) ;
#395 = DIRECTION ( 'NONE',  ( 1.000000000000000000, -0.0000000000000000000, -0.0000000000000000000 ) ) ;
#396 = DIRECTION ( 'NONE',  ( 0.0000000000000000000, 0.0000000000000000000, -1.000000000000000000 ) ) ;
#397 = EDGE_LOOP ( 'NONE', ( #92, #332, #179, #275, #162 ) ) ;
ENDSEC;
END-ISO-10303-21;
