ISO-10303-21;
HEADER;
FILE_DESCRIPTION (( 'STEP AP214' ),
    '1' );
FILE_NAME ('433-KF16-TS.STEP',
    '2018-11-07T08:53:55',
    ( '' ),
    ( '' ),
    'SwSTEP 2.0',
    'SolidWorks 2014',
    '' );
FILE_SCHEMA (( 'AUTOMOTIVE_DESIGN' ));
ENDSEC;

DATA;
#1 = SURFACE_STYLE_FILL_AREA ( #236 ) ;
#2 = EDGE_LOOP ( 'NONE', ( #351, #97, #178, #130 ) ) ;
#3 = EDGE_LOOP ( 'NONE', ( #53, #242 ) ) ;
#4 = STYLED_ITEM ( 'NONE', ( #125 ), #95 ) ;
#5 = FACE_OUTER_BOUND ( 'NONE', #30, .T. ) ;
#6 = DIRECTION ( 'NONE',  ( -1.000000000000000000, -0.0000000000000000000, -0.0000000000000000000 ) ) ;
#7 = CARTESIAN_POINT ( 'NONE',  ( 0.0000000000000000000, 1.224646799147353500E-015, -10.00000000000000200 ) ) ;
#8 = AXIS2_PLACEMENT_3D ( 'NONE', #265, #201, #381 ) ;
#9 = VECTOR ( 'NONE', #321, 1000.000000000000000 ) ;
#10 = DIRECTION ( 'NONE',  ( 0.0000000000000000000, 0.0000000000000000000, 1.000000000000000000 ) ) ;
#11 = VERTEX_POINT ( 'NONE', #153 ) ;
#12 = DIRECTION ( 'NONE',  ( -1.000000000000000000, -0.0000000000000000000, -0.0000000000000000000 ) ) ;
#13 = ORIENTED_EDGE ( 'NONE', *, *, #169, .T. ) ;
#14 = VERTEX_POINT ( 'NONE', #100 ) ;
#15 = EDGE_CURVE ( 'NONE', #11, #194, #66, .T. ) ;
#16 = DIRECTION ( 'NONE',  ( -1.000000000000000000, -0.0000000000000000000, -0.0000000000000000000 ) ) ;
#17 = FILL_AREA_STYLE_COLOUR ( '', #74 ) ;
#18 = ADVANCED_FACE ( 'NONE', ( #310, #390 ), #33, .F. ) ;
#19 = DIRECTION ( 'NONE',  ( -1.000000000000000000, -0.0000000000000000000, -0.0000000000000000000 ) ) ;
#20 = ORIENTED_EDGE ( 'NONE', *, *, #15, .F. ) ;
#21 = CARTESIAN_POINT ( 'NONE',  ( 30.00000000000000000, 0.0000000000000000000, 0.0000000000000000000 ) ) ;
#22 = FACE_OUTER_BOUND ( 'NONE', #320, .T. ) ;
#23 = CARTESIAN_POINT ( 'NONE',  ( 4.353143421777174300, 1.224646799147353500E-015, -10.00000000000000200 ) ) ;
#24 = VERTEX_POINT ( 'NONE', #35 ) ;
#25 = DIRECTION ( 'NONE',  ( 0.0000000000000000000, 0.0000000000000000000, 1.000000000000000000 ) ) ;
#26 = SURFACE_SIDE_STYLE ('',( #207 ) ) ;
#27 = AXIS2_PLACEMENT_3D ( 'NONE', #73, #251, #352 ) ;
#28 = ORIENTED_EDGE ( 'NONE', *, *, #77, .F. ) ;
#29 = VECTOR ( 'NONE', #168, 1000.000000000000000 ) ;
#30 = EDGE_LOOP ( 'NONE', ( #264, #118, #383, #176 ) ) ;
#31 = AXIS2_PLACEMENT_3D ( 'NONE', #206, #19, #238 ) ;
#32 = ORIENTED_EDGE ( 'NONE', *, *, #275, .T. ) ;
#33 = PLANE ( 'NONE',  #306 ) ;
#34 = EDGE_CURVE ( 'NONE', #41, #190, #65, .T. ) ;
#35 = CARTESIAN_POINT ( 'NONE',  ( 0.0000000000000000000, 1.843093432716766700E-015, -15.05000000000000100 ) ) ;
#36 = EDGE_LOOP ( 'NONE', ( #261, #159, #32, #183 ) ) ;
#37 = FACE_OUTER_BOUND ( 'NONE', #244, .T. ) ;
#38 = DIRECTION ( 'NONE',  ( 0.0000000000000000000, 0.0000000000000000000, 1.000000000000000000 ) ) ;
#39 = DIRECTION ( 'NONE',  ( 0.0000000000000000000, 0.0000000000000000000, 1.000000000000000000 ) ) ;
#40 = CARTESIAN_POINT ( 'NONE',  ( 0.0000000000000000000, 0.0000000000000000000, 0.0000000000000000000 ) ) ;
#41 = VERTEX_POINT ( 'NONE', #226 ) ;
#42 = PRESENTATION_LAYER_ASSIGNMENT (  '', '', ( #4 ) ) ;
#43 = ADVANCED_FACE ( 'NONE', ( #230 ), #373, .T. ) ;
#44 = SURFACE_SIDE_STYLE ('',( #1 ) ) ;
#45 = AXIS2_PLACEMENT_3D ( 'NONE', #107, #227, #10 ) ;
#46 = CYLINDRICAL_SURFACE ( 'NONE', #27, 8.000000000000000000 ) ;
#47 = DIRECTION ( 'NONE',  ( 0.0000000000000000000, 0.0000000000000000000, 1.000000000000000000 ) ) ;
#48 = DIRECTION ( 'NONE',  ( 0.0000000000000000000, 0.0000000000000000000, 1.000000000000000000 ) ) ;
#49 = AXIS2_PLACEMENT_3D ( 'NONE', #292, #76, #199 ) ;
#50 = CARTESIAN_POINT ( 'NONE',  ( 2.500000000000002200, 0.0000000000000000000, -8.000000000000000000 ) ) ;
#51 = APPLICATION_CONTEXT ( 'automotive_design' ) ;
#52 = CIRCLE ( 'NONE', #346, 8.650000000000000400 ) ;
#53 = ORIENTED_EDGE ( 'NONE', *, *, #149, .F. ) ;
#54 =( LENGTH_UNIT ( ) NAMED_UNIT ( * ) SI_UNIT ( .MILLI., .METRE. ) );
#55 = EDGE_CURVE ( 'NONE', #221, #257, #52, .T. ) ;
#56 = EDGE_LOOP ( 'NONE', ( #347, #255 ) ) ;
#57 = CYLINDRICAL_SURFACE ( 'NONE', #372, 10.00000000000000200 ) ;
#58 = AXIS2_PLACEMENT_3D ( 'NONE', #133, #164, #102 ) ;
#59 = CARTESIAN_POINT ( 'NONE',  ( 0.0000000000000000000, 1.843093432716766700E-015, -15.05000000000000100 ) ) ;
#60 = PRODUCT_DEFINITION_FORMATION_WITH_SPECIFIED_SOURCE ( 'ANY', '', #219, .NOT_KNOWN. ) ;
#61 = CARTESIAN_POINT ( 'NONE',  ( 2.500000000000002200, 0.0000000000000000000, 8.650000000000000400 ) ) ;
#62 = CYLINDRICAL_SURFACE ( 'NONE', #328, 8.650000000000000400 ) ;
#63 = EDGE_CURVE ( 'NONE', #123, #217, #137, .T. ) ;
#64 = CARTESIAN_POINT ( 'NONE',  ( 30.00000000000000000, 0.0000000000000000000, -10.00000000000000000 ) ) ;
#65 = CIRCLE ( 'NONE', #284, 8.000000000000000000 ) ;
#66 = CIRCLE ( 'NONE', #246, 8.000000000000000000 ) ;
#67 = FACE_OUTER_BOUND ( 'NONE', #172, .T. ) ;
#68 = DIRECTION ( 'NONE',  ( 0.0000000000000000000, 0.0000000000000000000, 1.000000000000000000 ) ) ;
#69 = DIRECTION ( 'NONE',  ( -1.000000000000000000, -0.0000000000000000000, -0.0000000000000000000 ) ) ;
#70 = CARTESIAN_POINT ( 'NONE',  ( 0.0000000000000000000, 0.0000000000000000000, 0.0000000000000000000 ) ) ;
#71 = PRODUCT_DEFINITION_SHAPE ( 'NONE', 'NONE',  #273 ) ;
#72 = AXIS2_PLACEMENT_3D ( 'NONE', #40, #12, #231 ) ;
#73 = CARTESIAN_POINT ( 'NONE',  ( 0.0000000000000000000, 0.0000000000000000000, 0.0000000000000000000 ) ) ;
#74 = COLOUR_RGB ( '',0.8980392156862745400, 0.8980392156862745400, 0.8980392156862745400 ) ;
#75 = ORIENTED_EDGE ( 'NONE', *, *, #184, .F. ) ;
#76 = DIRECTION ( 'NONE',  ( -1.000000000000000000, -0.0000000000000000000, -0.0000000000000000000 ) ) ;
#77 = EDGE_CURVE ( 'NONE', #78, #205, #148, .T. ) ;
#78 = VERTEX_POINT ( 'NONE', #161 ) ;
#79 = CIRCLE ( 'NONE', #209, 10.00000000000000200 ) ;
#80 = CARTESIAN_POINT ( 'NONE',  ( 0.0000000000000000000, 0.0000000000000000000, 8.650000000000000400 ) ) ;
#81 = ADVANCED_FACE ( 'NONE', ( #220 ), #46, .F. ) ;
#82 =( LENGTH_UNIT ( ) NAMED_UNIT ( * ) SI_UNIT ( .MILLI., .METRE. ) );
#83 = CARTESIAN_POINT ( 'NONE',  ( 3.000000000000000000, 0.0000000000000000000, 0.0000000000000000000 ) ) ;
#84 = DIRECTION ( 'NONE',  ( -1.000000000000000000, -0.0000000000000000000, -0.0000000000000000000 ) ) ;
#85 = VECTOR ( 'NONE', #248, 1000.000000000000000 ) ;
#86 = PLANE ( 'NONE',  #281 ) ;
#87 = EDGE_LOOP ( 'NONE', ( #197, #393 ) ) ;
#88 = EDGE_CURVE ( 'NONE', #14, #205, #380, .T. ) ;
#89 = VERTEX_POINT ( 'NONE', #254 ) ;
#90 = FACE_OUTER_BOUND ( 'NONE', #182, .T. ) ;
#91 = MECHANICAL_DESIGN_GEOMETRIC_PRESENTATION_REPRESENTATION (  '', ( #4 ), #188 ) ;
#92 = DIRECTION ( 'NONE',  ( 0.0000000000000000000, 0.0000000000000000000, 1.000000000000000000 ) ) ;
#93 = LINE ( 'NONE', #136, #9 ) ;
#94 = ORIENTED_EDGE ( 'NONE', *, *, #88, .F. ) ;
#95 = ADVANCED_BREP_SHAPE_REPRESENTATION ( '433-KF16-TS', ( #274, #290 ), #322 ) ;
#96 = ORIENTED_EDGE ( 'NONE', *, *, #294, .F. ) ;
#97 = ORIENTED_EDGE ( 'NONE', *, *, #213, .T. ) ;
#98 = DIRECTION ( 'NONE',  ( -1.000000000000000000, -0.0000000000000000000, -0.0000000000000000000 ) ) ;
#99 = EDGE_CURVE ( 'NONE', #89, #250, #214, .T. ) ;
#100 = CARTESIAN_POINT ( 'NONE',  ( 4.353143421777174300, 0.0000000000000000000, 10.00000000000000200 ) ) ;
#101 = AXIS2_PLACEMENT_3D ( 'NONE', #358, #360, #47 ) ;
#102 = DIRECTION ( 'NONE',  ( 0.0000000000000000000, 0.0000000000000000000, 1.000000000000000000 ) ) ;
#103 = ORIENTED_EDGE ( 'NONE', *, *, #375, .F. ) ;
#104 = CONICAL_SURFACE ( 'NONE', #58, 10.00000000000000200, 1.308996938995746300 ) ;
#105 = DIRECTION ( 'NONE',  ( -1.000000000000000000, -0.0000000000000000000, -0.0000000000000000000 ) ) ;
#106 = ORIENTED_EDGE ( 'NONE', *, *, #55, .T. ) ;
#107 = CARTESIAN_POINT ( 'NONE',  ( 0.0000000000000000000, 0.0000000000000000000, 0.0000000000000000000 ) ) ;
#108 = DIRECTION ( 'NONE',  ( 0.0000000000000000000, 0.0000000000000000000, 1.000000000000000000 ) ) ;
#109 = CARTESIAN_POINT ( 'NONE',  ( 0.0000000000000000000, 0.0000000000000000000, 0.0000000000000000000 ) ) ;
#110 = CARTESIAN_POINT ( 'NONE',  ( 3.000000000000000000, 0.0000000000000000000, 15.05000000000000100 ) ) ;
#111 =( NAMED_UNIT ( * ) SI_UNIT ( $, .STERADIAN. ) SOLID_ANGLE_UNIT ( ) );
#112 = ADVANCED_FACE ( 'NONE', ( #287, #369 ), #319, .F. ) ;
#113 = ORIENTED_EDGE ( 'NONE', *, *, #232, .T. ) ;
#114 = DIRECTION ( 'NONE',  ( 0.0000000000000000000, 0.0000000000000000000, 1.000000000000000000 ) ) ;
#115 = VECTOR ( 'NONE', #317, 1000.000000000000000 ) ;
#116 = ORIENTED_EDGE ( 'NONE', *, *, #122, .F. ) ;
#117 = DIRECTION ( 'NONE',  ( 0.0000000000000000000, 0.0000000000000000000, 1.000000000000000000 ) ) ;
#118 = ORIENTED_EDGE ( 'NONE', *, *, #55, .F. ) ;
#119 = DIRECTION ( 'NONE',  ( 1.000000000000000000, 0.0000000000000000000, 0.0000000000000000000 ) ) ;
#120 = APPLICATION_PROTOCOL_DEFINITION ( 'draft international standard', 'automotive_design', 1998, #51 ) ;
#121 =( NAMED_UNIT ( * ) SI_UNIT ( $, .STERADIAN. ) SOLID_ANGLE_UNIT ( ) );
#122 = EDGE_CURVE ( 'NONE', #132, #24, #126, .T. ) ;
#123 = VERTEX_POINT ( 'NONE', #262 ) ;
#124 = AXIS2_PLACEMENT_3D ( 'NONE', #162, #376, #200 ) ;
#125 = PRESENTATION_STYLE_ASSIGNMENT (( #243 ) ) ;
#126 = CIRCLE ( 'NONE', #337, 15.05000000000000100 ) ;
#127 = UNCERTAINTY_MEASURE_WITH_UNIT (LENGTH_MEASURE( 1.000000000000000100E-005 ), #241, 'distance_accuracy_value', 'NONE');
#128 = EDGE_CURVE ( 'NONE', #14, #234, #362, .T. ) ;
#129 = DIRECTION ( 'NONE',  ( 0.0000000000000000000, 0.0000000000000000000, -1.000000000000000000 ) ) ;
#130 = ORIENTED_EDGE ( 'NONE', *, *, #334, .F. ) ;
#131 = DIRECTION ( 'NONE',  ( 1.000000000000000000, 0.0000000000000000000, 0.0000000000000000000 ) ) ;
#132 = VERTEX_POINT ( 'NONE', #350 ) ;
#133 = CARTESIAN_POINT ( 'NONE',  ( 4.353143421777174300, 0.0000000000000000000, 0.0000000000000000000 ) ) ;
#134 = DIRECTION ( 'NONE',  ( -0.2588190451025215200, 0.0000000000000000000, 0.9659258262890679800 ) ) ;
#135 = DIRECTION ( 'NONE',  ( -1.000000000000000000, -0.0000000000000000000, -0.0000000000000000000 ) ) ;
#136 = CARTESIAN_POINT ( 'NONE',  ( 0.0000000000000000000, 0.0000000000000000000, 8.000000000000000000 ) ) ;
#137 = CIRCLE ( 'NONE', #367, 10.00000000000000000 ) ;
#138 = CARTESIAN_POINT ( 'NONE',  ( 4.353143421777174300, 1.533870115932060300E-015, -10.00000000000000200 ) ) ;
#139 = ORIENTED_EDGE ( 'NONE', *, *, #128, .T. ) ;
#140 = EDGE_CURVE ( 'NONE', #217, #234, #195, .T. ) ;
#141 = EDGE_LOOP ( 'NONE', ( #277, #113, #116, #279 ) ) ;
#142 = CARTESIAN_POINT ( 'NONE',  ( 0.0000000000000000000, 0.0000000000000000000, 0.0000000000000000000 ) ) ;
#143 = FACE_OUTER_BOUND ( 'NONE', #180, .T. ) ;
#144 = ADVANCED_FACE ( 'NONE', ( #37 ), #104, .T. ) ;
#145 = AXIS2_PLACEMENT_3D ( 'NONE', #21, #239, #25 ) ;
#146 = CARTESIAN_POINT ( 'NONE',  ( 0.0000000000000000000, 0.0000000000000000000, 0.0000000000000000000 ) ) ;
#147 = CARTESIAN_POINT ( 'NONE',  ( 0.0000000000000000000, 0.0000000000000000000, 0.0000000000000000000 ) ) ;
#148 = CIRCLE ( 'NONE', #385, 15.05000000000000100 ) ;
#149 = EDGE_CURVE ( 'NONE', #250, #89, #187, .T. ) ;
#150 = DIRECTION ( 'NONE',  ( 1.000000000000000000, 0.0000000000000000000, 0.0000000000000000000 ) ) ;
#151 = CLOSED_SHELL ( 'NONE', ( #267, #81, #361, #144, #175, #204, #43, #237, #112, #325, #386, #299, #18 ) ) ;
#152 = CYLINDRICAL_SURFACE ( 'NONE', #163, 8.000000000000000000 ) ;
#153 = CARTESIAN_POINT ( 'NONE',  ( 30.00000000000000000, 0.0000000000000000000, 8.000000000000000000 ) ) ;
#154 = FACE_OUTER_BOUND ( 'NONE', #170, .T. ) ;
#155 = DIRECTION ( 'NONE',  ( 0.0000000000000000000, 0.0000000000000000000, 1.000000000000000000 ) ) ;
#156 = ORIENTED_EDGE ( 'NONE', *, *, #169, .F. ) ;
#157 = DIRECTION ( 'NONE',  ( 0.0000000000000000000, 0.0000000000000000000, 1.000000000000000000 ) ) ;
#158 = CARTESIAN_POINT ( 'NONE',  ( 2.500000000000002200, 0.0000000000000000000, 0.0000000000000000000 ) ) ;
#159 = ORIENTED_EDGE ( 'NONE', *, *, #184, .T. ) ;
#160 = LINE ( 'NONE', #302, #384 ) ;
#161 = CARTESIAN_POINT ( 'NONE',  ( 3.000000000000000000, 1.843093432716766700E-015, -15.05000000000000100 ) ) ;
#162 = CARTESIAN_POINT ( 'NONE',  ( 0.0000000000000000000, 0.0000000000000000000, 0.0000000000000000000 ) ) ;
#163 = AXIS2_PLACEMENT_3D ( 'NONE', #146, #301, #157 ) ;
#164 = DIRECTION ( 'NONE',  ( -1.000000000000000000, -0.0000000000000000000, -0.0000000000000000000 ) ) ;
#165 = CYLINDRICAL_SURFACE ( 'NONE', #349, 15.05000000000000100 ) ;
#166 = DIRECTION ( 'NONE',  ( -1.000000000000000000, -0.0000000000000000000, -0.0000000000000000000 ) ) ;
#167 = ORIENTED_EDGE ( 'NONE', *, *, #34, .T. ) ;
#168 = DIRECTION ( 'NONE',  ( -1.000000000000000000, -0.0000000000000000000, -0.0000000000000000000 ) ) ;
#169 = EDGE_CURVE ( 'NONE', #24, #132, #278, .T. ) ;
#170 = EDGE_LOOP ( 'NONE', ( #335, #189, #298, #344 ) ) ;
#171 = CIRCLE ( 'NONE', #31, 8.000000000000000000 ) ;
#172 = EDGE_LOOP ( 'NONE', ( #368, #341, #224, #268 ) ) ;
#173 = CARTESIAN_POINT ( 'NONE',  ( 2.500000000000002200, 9.797174393178825700E-016, -8.000000000000000000 ) ) ;
#174 = DIRECTION ( 'NONE',  ( 0.0000000000000000000, 0.0000000000000000000, 1.000000000000000000 ) ) ;
#175 = ADVANCED_FACE ( 'NONE', ( #270 ), #339, .T. ) ;
#176 = ORIENTED_EDGE ( 'NONE', *, *, #149, .T. ) ;
#177 = CIRCLE ( 'NONE', #8, 8.000000000000000000 ) ;
#178 = ORIENTED_EDGE ( 'NONE', *, *, #99, .T. ) ;
#179 = AXIS2_PLACEMENT_3D ( 'NONE', #64, #198, #291 ) ;
#180 = EDGE_LOOP ( 'NONE', ( #106, #285 ) ) ;
#181 = CARTESIAN_POINT ( 'NONE',  ( 0.0000000000000000000, 0.0000000000000000000, 0.0000000000000000000 ) ) ;
#182 = EDGE_LOOP ( 'NONE', ( #75, #20, #252, #167 ) ) ;
#183 = ORIENTED_EDGE ( 'NONE', *, *, #203, .F. ) ;
#184 = EDGE_CURVE ( 'NONE', #194, #190, #208, .T. ) ;
#185 = AXIS2_PLACEMENT_3D ( 'NONE', #83, #327, #114 ) ;
#186 = ORIENTED_EDGE ( 'NONE', *, *, #122, .T. ) ;
#187 = CIRCLE ( 'NONE', #124, 8.650000000000000400 ) ;
#188 =( GEOMETRIC_REPRESENTATION_CONTEXT ( 3 ) GLOBAL_UNCERTAINTY_ASSIGNED_CONTEXT ( ( #354 ) ) GLOBAL_UNIT_ASSIGNED_CONTEXT ( ( #54, #276, #121 ) ) REPRESENTATION_CONTEXT ( 'NONE', 'WORKASPACE' ) );
#189 = ORIENTED_EDGE ( 'NONE', *, *, #392, .T. ) ;
#190 = VERTEX_POINT ( 'NONE', #173 ) ;
#191 = DIRECTION ( 'NONE',  ( -1.000000000000000000, -0.0000000000000000000, -0.0000000000000000000 ) ) ;
#192 = EDGE_CURVE ( 'NONE', #257, #221, #259, .T. ) ;
#193 = CARTESIAN_POINT ( 'NONE',  ( 4.353143421777174300, 0.0000000000000000000, 0.0000000000000000000 ) ) ;
#194 = VERTEX_POINT ( 'NONE', #196 ) ;
#195 = LINE ( 'NONE', #7, #115 ) ;
#196 = CARTESIAN_POINT ( 'NONE',  ( 30.00000000000000000, 9.797174393178825700E-016, -8.000000000000000000 ) ) ;
#197 = ORIENTED_EDGE ( 'NONE', *, *, #63, .F. ) ;
#198 = DIRECTION ( 'NONE',  ( -1.000000000000000000, 0.0000000000000000000, -0.0000000000000000000 ) ) ;
#199 = DIRECTION ( 'NONE',  ( 0.0000000000000000000, 0.0000000000000000000, 1.000000000000000000 ) ) ;
#200 = DIRECTION ( 'NONE',  ( 0.0000000000000000000, 0.0000000000000000000, 1.000000000000000000 ) ) ;
#201 = DIRECTION ( 'NONE',  ( -1.000000000000000000, -0.0000000000000000000, -0.0000000000000000000 ) ) ;
#202 = CARTESIAN_POINT ( 'NONE',  ( 0.0000000000000000000, 0.0000000000000000000, 15.05000000000000100 ) ) ;
#203 = EDGE_CURVE ( 'NONE', #11, #41, #93, .T. ) ;
#204 = ADVANCED_FACE ( 'NONE', ( #22 ), #165, .T. ) ;
#205 = VERTEX_POINT ( 'NONE', #110 ) ;
#206 = CARTESIAN_POINT ( 'NONE',  ( 2.500000000000002200, 0.0000000000000000000, 0.0000000000000000000 ) ) ;
#207 = SURFACE_STYLE_FILL_AREA ( #216 ) ;
#208 = LINE ( 'NONE', #379, #29 ) ;
#209 = AXIS2_PLACEMENT_3D ( 'NONE', #297, #363, #48 ) ;
#210 = DIRECTION ( 'NONE',  ( -1.000000000000000000, -0.0000000000000000000, -0.0000000000000000000 ) ) ;
#211 = PRODUCT_RELATED_PRODUCT_CATEGORY ( 'part', '', ( #219 ) ) ;
#212 = DIRECTION ( 'NONE',  ( -0.2588190451025215200, 1.182917971378669300E-016, -0.9659258262890679800 ) ) ;
#213 = EDGE_CURVE ( 'NONE', #257, #89, #249, .T. ) ;
#214 = CIRCLE ( 'NONE', #45, 8.650000000000000400 ) ;
#215 = EDGE_LOOP ( 'NONE', ( #263, #295 ) ) ;
#216 = FILL_AREA_STYLE ('',( #364 ) ) ;
#217 = VERTEX_POINT ( 'NONE', #296 ) ;
#218 = CIRCLE ( 'NONE', #145, 10.00000000000000000 ) ;
#219 = PRODUCT ( '433-KF16-TS', '433-KF16-TS', '', ( #303 ) ) ;
#220 = FACE_OUTER_BOUND ( 'NONE', #36, .T. ) ;
#221 = VERTEX_POINT ( 'NONE', #61 ) ;
#222 = DIRECTION ( 'NONE',  ( 0.0000000000000000000, 0.0000000000000000000, 1.000000000000000000 ) ) ;
#223 = EDGE_CURVE ( 'NONE', #194, #11, #177, .T. ) ;
#224 = ORIENTED_EDGE ( 'NONE', *, *, #128, .F. ) ;
#225 = LINE ( 'NONE', #23, #235 ) ;
#226 = CARTESIAN_POINT ( 'NONE',  ( 2.500000000000002200, 0.0000000000000000000, 8.000000000000000000 ) ) ;
#227 = DIRECTION ( 'NONE',  ( -1.000000000000000000, -0.0000000000000000000, -0.0000000000000000000 ) ) ;
#228 = FACE_OUTER_BOUND ( 'NONE', #2, .T. ) ;
#229 = CARTESIAN_POINT ( 'NONE',  ( 0.0000000000000000000, 1.059319481262460600E-015, -8.650000000000000400 ) ) ;
#230 = FACE_OUTER_BOUND ( 'NONE', #272, .T. ) ;
#231 = DIRECTION ( 'NONE',  ( 0.0000000000000000000, 0.0000000000000000000, 1.000000000000000000 ) ) ;
#232 = EDGE_CURVE ( 'NONE', #78, #24, #329, .T. ) ;
#233 = CARTESIAN_POINT ( 'NONE',  ( 0.0000000000000000000, 0.0000000000000000000, 0.0000000000000000000 ) ) ;
#234 = VERTEX_POINT ( 'NONE', #138 ) ;
#235 = VECTOR ( 'NONE', #212, 1000.000000000000100 ) ;
#236 = FILL_AREA_STYLE ('',( #17 ) ) ;
#237 = ADVANCED_FACE ( 'NONE', ( #154 ), #389, .T. ) ;
#238 = DIRECTION ( 'NONE',  ( 0.0000000000000000000, 0.0000000000000000000, 1.000000000000000000 ) ) ;
#239 = DIRECTION ( 'NONE',  ( -1.000000000000000000, -0.0000000000000000000, -0.0000000000000000000 ) ) ;
#240 = UNCERTAINTY_MEASURE_WITH_UNIT (LENGTH_MEASURE( 1.000000000000000100E-005 ), #82, 'distance_accuracy_value', 'NONE');
#241 =( LENGTH_UNIT ( ) NAMED_UNIT ( * ) SI_UNIT ( .MILLI., .METRE. ) );
#242 = ORIENTED_EDGE ( 'NONE', *, *, #99, .F. ) ;
#243 = SURFACE_STYLE_USAGE ( .BOTH. , #26 ) ;
#244 = EDGE_LOOP ( 'NONE', ( #139, #336, #96, #94 ) ) ;
#245 = VECTOR ( 'NONE', #210, 1000.000000000000000 ) ;
#246 = AXIS2_PLACEMENT_3D ( 'NONE', #311, #6, #313 ) ;
#247 = MECHANICAL_DESIGN_GEOMETRIC_PRESENTATION_REPRESENTATION (  '', ( #370 ), #269 ) ;
#248 = DIRECTION ( 'NONE',  ( -1.000000000000000000, -0.0000000000000000000, -0.0000000000000000000 ) ) ;
#249 = LINE ( 'NONE', #229, #85 ) ;
#250 = VERTEX_POINT ( 'NONE', #80 ) ;
#251 = DIRECTION ( 'NONE',  ( -1.000000000000000000, -0.0000000000000000000, -0.0000000000000000000 ) ) ;
#252 = ORIENTED_EDGE ( 'NONE', *, *, #203, .T. ) ;
#253 = EDGE_CURVE ( 'NONE', #205, #132, #348, .T. ) ;
#254 = CARTESIAN_POINT ( 'NONE',  ( 0.0000000000000000000, 1.059319481262460600E-015, -8.650000000000000400 ) ) ;
#255 = ORIENTED_EDGE ( 'NONE', *, *, #275, .F. ) ;
#256 = DIRECTION ( 'NONE',  ( 0.0000000000000000000, 0.0000000000000000000, 1.000000000000000000 ) ) ;
#257 = VERTEX_POINT ( 'NONE', #355 ) ;
#258 = DIRECTION ( 'NONE',  ( -1.000000000000000000, -0.0000000000000000000, -0.0000000000000000000 ) ) ;
#259 = CIRCLE ( 'NONE', #49, 8.650000000000000400 ) ;
#260 = CARTESIAN_POINT ( 'NONE',  ( 3.000000000000000000, 0.0000000000000000000, 0.0000000000000000000 ) ) ;
#261 = ORIENTED_EDGE ( 'NONE', *, *, #223, .F. ) ;
#262 = CARTESIAN_POINT ( 'NONE',  ( 30.00000000000000000, 0.0000000000000000000, 10.00000000000000000 ) ) ;
#263 = ORIENTED_EDGE ( 'NONE', *, *, #15, .T. ) ;
#264 = ORIENTED_EDGE ( 'NONE', *, *, #213, .F. ) ;
#265 = CARTESIAN_POINT ( 'NONE',  ( 30.00000000000000000, 0.0000000000000000000, 0.0000000000000000000 ) ) ;
#266 = SURFACE_STYLE_USAGE ( .BOTH. , #44 ) ;
#267 = ADVANCED_FACE ( 'NONE', ( #228 ), #62, .F. ) ;
#268 = ORIENTED_EDGE ( 'NONE', *, *, #356, .F. ) ;
#269 =( GEOMETRIC_REPRESENTATION_CONTEXT ( 3 ) GLOBAL_UNCERTAINTY_ASSIGNED_CONTEXT ( ( #240 ) ) GLOBAL_UNIT_ASSIGNED_CONTEXT ( ( #82, #300, #111 ) ) REPRESENTATION_CONTEXT ( 'NONE', 'WORKASPACE' ) );
#270 = FACE_OUTER_BOUND ( 'NONE', #141, .T. ) ;
#271 = CARTESIAN_POINT ( 'NONE',  ( 0.0000000000000000000, 0.0000000000000000000, 8.650000000000000400 ) ) ;
#272 = EDGE_LOOP ( 'NONE', ( #103, #332, #331, #28 ) ) ;
#274 = MANIFOLD_SOLID_BREP ( 'Rotation1', #151 ) ;
#273 = PRODUCT_DEFINITION ( 'UNKNOWN', '', #60, #343 ) ;
#275 = EDGE_CURVE ( 'NONE', #190, #41, #171, .T. ) ;
#276 =( NAMED_UNIT ( * ) PLANE_ANGLE_UNIT ( ) SI_UNIT ( $, .RADIAN. ) );
#277 = ORIENTED_EDGE ( 'NONE', *, *, #294, .T. ) ;
#278 = CIRCLE ( 'NONE', #72, 15.05000000000000100 ) ;
#279 = ORIENTED_EDGE ( 'NONE', *, *, #253, .F. ) ;
#280 = DIRECTION ( 'NONE',  ( -1.000000000000000000, -0.0000000000000000000, -0.0000000000000000000 ) ) ;
#281 = AXIS2_PLACEMENT_3D ( 'NONE', #50, #119, #330 ) ;
#282 = CARTESIAN_POINT ( 'NONE',  ( 4.353143421777174300, 0.0000000000000000000, 10.00000000000000200 ) ) ;
#283 = DIRECTION ( 'NONE',  ( 0.0000000000000000000, 0.0000000000000000000, 1.000000000000000000 ) ) ;
#284 = AXIS2_PLACEMENT_3D ( 'NONE', #158, #280, #155 ) ;
#285 = ORIENTED_EDGE ( 'NONE', *, *, #192, .T. ) ;
#286 = COLOUR_RGB ( '',0.8980392156862745400, 0.8980392156862745400, 0.8980392156862745400 ) ;
#287 = FACE_OUTER_BOUND ( 'NONE', #87, .T. ) ;
#288 = CARTESIAN_POINT ( 'NONE',  ( 4.353143421777174300, 0.0000000000000000000, 0.0000000000000000000 ) ) ;
#289 = PRESENTATION_LAYER_ASSIGNMENT (  '', '', ( #370 ) ) ;
#290 = AXIS2_PLACEMENT_3D ( 'NONE', #181, #92, #150 ) ;
#291 = DIRECTION ( 'NONE',  ( -0.0000000000000000000, 0.0000000000000000000, 1.000000000000000000 ) ) ;
#292 = CARTESIAN_POINT ( 'NONE',  ( 2.500000000000002200, 0.0000000000000000000, 0.0000000000000000000 ) ) ;
#293 = VECTOR ( 'NONE', #134, 1000.000000000000100 ) ;
#294 = EDGE_CURVE ( 'NONE', #205, #78, #323, .T. ) ;
#295 = ORIENTED_EDGE ( 'NONE', *, *, #223, .T. ) ;
#296 = CARTESIAN_POINT ( 'NONE',  ( 30.00000000000000000, 1.224646799147353300E-015, -10.00000000000000000 ) ) ;
#297 = CARTESIAN_POINT ( 'NONE',  ( 4.353143421777174300, 0.0000000000000000000, 0.0000000000000000000 ) ) ;
#298 = ORIENTED_EDGE ( 'NONE', *, *, #356, .T. ) ;
#299 = ADVANCED_FACE ( 'NONE', ( #5 ), #394, .F. ) ;
#300 =( NAMED_UNIT ( * ) PLANE_ANGLE_UNIT ( ) SI_UNIT ( $, .RADIAN. ) );
#301 = DIRECTION ( 'NONE',  ( -1.000000000000000000, -0.0000000000000000000, -0.0000000000000000000 ) ) ;
#302 = CARTESIAN_POINT ( 'NONE',  ( 0.0000000000000000000, 0.0000000000000000000, 10.00000000000000200 ) ) ;
#303 = PRODUCT_CONTEXT ( 'NONE', #391, 'mechanical' ) ;
#304 =( NAMED_UNIT ( * ) SI_UNIT ( $, .STERADIAN. ) SOLID_ANGLE_UNIT ( ) );
#305 = FACE_BOUND ( 'NONE', #56, .T. ) ;
#306 = AXIS2_PLACEMENT_3D ( 'NONE', #316, #131, #129 ) ;
#307 = AXIS2_PLACEMENT_3D ( 'NONE', #377, #382, #340 ) ;
#308 = DIRECTION ( 'NONE',  ( -1.000000000000000000, -0.0000000000000000000, -0.0000000000000000000 ) ) ;
#309 = VECTOR ( 'NONE', #324, 1000.000000000000000 ) ;
#310 = FACE_BOUND ( 'NONE', #3, .T. ) ;
#311 = CARTESIAN_POINT ( 'NONE',  ( 30.00000000000000000, 0.0000000000000000000, 0.0000000000000000000 ) ) ;
#312 = EDGE_CURVE ( 'NONE', #234, #14, #79, .T. ) ;
#313 = DIRECTION ( 'NONE',  ( 0.0000000000000000000, 0.0000000000000000000, 1.000000000000000000 ) ) ;
#314 = ORIENTED_EDGE ( 'NONE', *, *, #232, .F. ) ;
#315 = LINE ( 'NONE', #271, #245 ) ;
#316 = CARTESIAN_POINT ( 'NONE',  ( 0.0000000000000000000, 0.0000000000000000000, -8.650000000000000400 ) ) ;
#317 = DIRECTION ( 'NONE',  ( -1.000000000000000000, -0.0000000000000000000, -0.0000000000000000000 ) ) ;
#318 = VECTOR ( 'NONE', #308, 1000.000000000000000 ) ;
#319 = PLANE ( 'NONE',  #179 ) ;
#320 = EDGE_LOOP ( 'NONE', ( #314, #353, #374, #156 ) ) ;
#321 = DIRECTION ( 'NONE',  ( -1.000000000000000000, -0.0000000000000000000, -0.0000000000000000000 ) ) ;
#322 =( GEOMETRIC_REPRESENTATION_CONTEXT ( 3 ) GLOBAL_UNCERTAINTY_ASSIGNED_CONTEXT ( ( #127 ) ) GLOBAL_UNIT_ASSIGNED_CONTEXT ( ( #241, #333, #304 ) ) REPRESENTATION_CONTEXT ( 'NONE', 'WORKASPACE' ) );
#323 = CIRCLE ( 'NONE', #185, 15.05000000000000100 ) ;
#324 = DIRECTION ( 'NONE',  ( -1.000000000000000000, -0.0000000000000000000, -0.0000000000000000000 ) ) ;
#325 = ADVANCED_FACE ( 'NONE', ( #90 ), #152, .F. ) ;
#326 = AXIS2_PLACEMENT_3D ( 'NONE', #193, #98, #222 ) ;
#327 = DIRECTION ( 'NONE',  ( -1.000000000000000000, -0.0000000000000000000, -0.0000000000000000000 ) ) ;
#328 = AXIS2_PLACEMENT_3D ( 'NONE', #142, #16, #174 ) ;
#329 = LINE ( 'NONE', #59, #318 ) ;
#330 = DIRECTION ( 'NONE',  ( 0.0000000000000000000, 0.0000000000000000000, -1.000000000000000000 ) ) ;
#331 = ORIENTED_EDGE ( 'NONE', *, *, #88, .T. ) ;
#332 = ORIENTED_EDGE ( 'NONE', *, *, #312, .T. ) ;
#333 =( NAMED_UNIT ( * ) PLANE_ANGLE_UNIT ( ) SI_UNIT ( $, .RADIAN. ) );
#334 = EDGE_CURVE ( 'NONE', #221, #250, #315, .T. ) ;
#335 = ORIENTED_EDGE ( 'NONE', *, *, #140, .F. ) ;
#336 = ORIENTED_EDGE ( 'NONE', *, *, #375, .T. ) ;
#337 = AXIS2_PLACEMENT_3D ( 'NONE', #70, #258, #38 ) ;
#338 = SHAPE_DEFINITION_REPRESENTATION ( #71, #95 ) ;
#339 = CYLINDRICAL_SURFACE ( 'NONE', #387, 15.05000000000000100 ) ;
#340 = DIRECTION ( 'NONE',  ( 0.0000000000000000000, 0.0000000000000000000, 1.000000000000000000 ) ) ;
#341 = ORIENTED_EDGE ( 'NONE', *, *, #140, .T. ) ;
#342 = CARTESIAN_POINT ( 'NONE',  ( 2.500000000000002200, 0.0000000000000000000, 0.0000000000000000000 ) ) ;
#343 = PRODUCT_DEFINITION_CONTEXT ( 'detailed design', #51, 'design' ) ;
#344 = ORIENTED_EDGE ( 'NONE', *, *, #312, .F. ) ;
#345 = CARTESIAN_POINT ( 'NONE',  ( 30.00000000000000000, 0.0000000000000000000, 0.0000000000000000000 ) ) ;
#346 = AXIS2_PLACEMENT_3D ( 'NONE', #342, #191, #283 ) ;
#347 = ORIENTED_EDGE ( 'NONE', *, *, #34, .F. ) ;
#348 = LINE ( 'NONE', #202, #309 ) ;
#349 = AXIS2_PLACEMENT_3D ( 'NONE', #109, #357, #39 ) ;
#350 = CARTESIAN_POINT ( 'NONE',  ( 0.0000000000000000000, 0.0000000000000000000, 15.05000000000000100 ) ) ;
#351 = ORIENTED_EDGE ( 'NONE', *, *, #192, .F. ) ;
#352 = DIRECTION ( 'NONE',  ( 0.0000000000000000000, 0.0000000000000000000, 1.000000000000000000 ) ) ;
#353 = ORIENTED_EDGE ( 'NONE', *, *, #77, .T. ) ;
#354 = UNCERTAINTY_MEASURE_WITH_UNIT (LENGTH_MEASURE( 1.000000000000000100E-005 ), #54, 'distance_accuracy_value', 'NONE');
#355 = CARTESIAN_POINT ( 'NONE',  ( 2.500000000000002200, 1.059319481262460600E-015, -8.650000000000000400 ) ) ;
#356 = EDGE_CURVE ( 'NONE', #123, #14, #160, .T. ) ;
#357 = DIRECTION ( 'NONE',  ( -1.000000000000000000, -0.0000000000000000000, -0.0000000000000000000 ) ) ;
#358 = CARTESIAN_POINT ( 'NONE',  ( 0.0000000000000000000, 0.0000000000000000000, 0.0000000000000000000 ) ) ;
#359 = EDGE_LOOP ( 'NONE', ( #186, #13 ) ) ;
#360 = DIRECTION ( 'NONE',  ( -1.000000000000000000, -0.0000000000000000000, -0.0000000000000000000 ) ) ;
#361 = ADVANCED_FACE ( 'NONE', ( #67 ), #57, .T. ) ;
#362 = CIRCLE ( 'NONE', #365, 10.00000000000000200 ) ;
#363 = DIRECTION ( 'NONE',  ( -1.000000000000000000, -0.0000000000000000000, -0.0000000000000000000 ) ) ;
#364 = FILL_AREA_STYLE_COLOUR ( '', #286 ) ;
#365 = AXIS2_PLACEMENT_3D ( 'NONE', #288, #69, #256 ) ;
#366 = APPLICATION_PROTOCOL_DEFINITION ( 'draft international standard', 'automotive_design', 1998, #391 ) ;
#367 = AXIS2_PLACEMENT_3D ( 'NONE', #345, #166, #108 ) ;
#368 = ORIENTED_EDGE ( 'NONE', *, *, #63, .T. ) ;
#369 = FACE_BOUND ( 'NONE', #215, .T. ) ;
#370 = STYLED_ITEM ( 'NONE', ( #378 ), #274 ) ;
#371 = DIRECTION ( 'NONE',  ( 0.0000000000000000000, 0.0000000000000000000, 1.000000000000000000 ) ) ;
#372 = AXIS2_PLACEMENT_3D ( 'NONE', #147, #388, #117 ) ;
#373 = CONICAL_SURFACE ( 'NONE', #326, 10.00000000000000200, 1.308996938995746300 ) ;
#374 = ORIENTED_EDGE ( 'NONE', *, *, #253, .T. ) ;
#375 = EDGE_CURVE ( 'NONE', #234, #78, #225, .T. ) ;
#376 = DIRECTION ( 'NONE',  ( -1.000000000000000000, -0.0000000000000000000, -0.0000000000000000000 ) ) ;
#377 = CARTESIAN_POINT ( 'NONE',  ( 0.0000000000000000000, 0.0000000000000000000, 0.0000000000000000000 ) ) ;
#378 = PRESENTATION_STYLE_ASSIGNMENT (( #266 ) ) ;
#379 = CARTESIAN_POINT ( 'NONE',  ( 0.0000000000000000000, 9.797174393178825700E-016, -8.000000000000000000 ) ) ;
#380 = LINE ( 'NONE', #282, #293 ) ;
#381 = DIRECTION ( 'NONE',  ( 0.0000000000000000000, 0.0000000000000000000, 1.000000000000000000 ) ) ;
#382 = DIRECTION ( 'NONE',  ( -1.000000000000000000, -0.0000000000000000000, -0.0000000000000000000 ) ) ;
#383 = ORIENTED_EDGE ( 'NONE', *, *, #334, .T. ) ;
#384 = VECTOR ( 'NONE', #84, 1000.000000000000000 ) ;
#385 = AXIS2_PLACEMENT_3D ( 'NONE', #260, #135, #371 ) ;
#386 = ADVANCED_FACE ( 'NONE', ( #305, #143 ), #86, .F. ) ;
#387 = AXIS2_PLACEMENT_3D ( 'NONE', #233, #105, #68 ) ;
#388 = DIRECTION ( 'NONE',  ( -1.000000000000000000, -0.0000000000000000000, -0.0000000000000000000 ) ) ;
#389 = CYLINDRICAL_SURFACE ( 'NONE', #307, 10.00000000000000200 ) ;
#390 = FACE_OUTER_BOUND ( 'NONE', #359, .T. ) ;
#391 = APPLICATION_CONTEXT ( 'automotive_design' ) ;
#392 = EDGE_CURVE ( 'NONE', #217, #123, #218, .T. ) ;
#393 = ORIENTED_EDGE ( 'NONE', *, *, #392, .F. ) ;
#394 = CYLINDRICAL_SURFACE ( 'NONE', #101, 8.650000000000000400 ) ;
ENDSEC;
END-ISO-10303-21;
