ISO-10303-21;
HEADER;
FILE_DESCRIPTION (( 'STEP AP214' ),
    '1' );
FILE_NAME ('433-KF50-TS.STEP',
    '2018-11-07T08:49:44',
    ( '' ),
    ( '' ),
    'SwSTEP 2.0',
    'SolidWorks 2014',
    '' );
FILE_SCHEMA (( 'AUTOMOTIVE_DESIGN' ));
ENDSEC;

DATA;
#1 = CIRCLE ( 'NONE', #42, 25.00000000000000000 ) ;
#2 = DIRECTION ( 'NONE',  ( 0.0000000000000000000, 0.0000000000000000000, 1.000000000000000000 ) ) ;
#3 = ORIENTED_EDGE ( 'NONE', *, *, #186, .F. ) ;
#4 = AXIS2_PLACEMENT_3D ( 'NONE', #262, #142, #237 ) ;
#5 = CARTESIAN_POINT ( 'NONE',  ( 30.00000000000000000, 0.0000000000000000000, 0.0000000000000000000 ) ) ;
#6 = CARTESIAN_POINT ( 'NONE',  ( 2.500000000000002200, 0.0000000000000000000, 0.0000000000000000000 ) ) ;
#7 = PRODUCT_DEFINITION_SHAPE ( 'NONE', 'NONE',  #116 ) ;
#8 = PLANE ( 'NONE',  #221 ) ;
#9 = CYLINDRICAL_SURFACE ( 'NONE', #254, 37.50000000000000000 ) ;
#10 = MECHANICAL_DESIGN_GEOMETRIC_PRESENTATION_REPRESENTATION (  '', ( #362 ), #31 ) ;
#11 = LINE ( 'NONE', #117, #249 ) ;
#12 = DIRECTION ( 'NONE',  ( 0.0000000000000000000, 0.0000000000000000000, 1.000000000000000000 ) ) ;
#13 = ORIENTED_EDGE ( 'NONE', *, *, #273, .F. ) ;
#14 = AXIS2_PLACEMENT_3D ( 'NONE', #293, #236, #228 ) ;
#15 = EDGE_LOOP ( 'NONE', ( #351, #65 ) ) ;
#16 = ADVANCED_FACE ( 'NONE', ( #55 ), #46, .F. ) ;
#17 = CARTESIAN_POINT ( 'NONE',  ( 5.679491924311235200, 0.0000000000000000000, 27.50000000000000000 ) ) ;
#18 = AXIS2_PLACEMENT_3D ( 'NONE', #23, #207, #59 ) ;
#19 = PRESENTATION_STYLE_ASSIGNMENT (( #313 ) ) ;
#20 = CLOSED_SHELL ( 'NONE', ( #16, #235, #260, #347, #144, #75, #106, #322, #289, #199, #381, #54, #79 ) ) ;
#21 = DIRECTION ( 'NONE',  ( -1.000000000000000000, -0.0000000000000000000, -0.0000000000000000000 ) ) ;
#22 = FACE_OUTER_BOUND ( 'NONE', #217, .T. ) ;
#23 = CARTESIAN_POINT ( 'NONE',  ( 0.0000000000000000000, 0.0000000000000000000, 0.0000000000000000000 ) ) ;
#24 = FACE_OUTER_BOUND ( 'NONE', #204, .T. ) ;
#25 = CARTESIAN_POINT ( 'NONE',  ( 2.500000000000002200, 0.0000000000000000000, 0.0000000000000000000 ) ) ;
#26 = ORIENTED_EDGE ( 'NONE', *, *, #339, .T. ) ;
#27 = DIRECTION ( 'NONE',  ( 0.0000000000000000000, 0.0000000000000000000, 1.000000000000000000 ) ) ;
#28 = LINE ( 'NONE', #244, #182 ) ;
#29 = DIRECTION ( 'NONE',  ( 1.000000000000000000, 0.0000000000000000000, 0.0000000000000000000 ) ) ;
#30 = EDGE_LOOP ( 'NONE', ( #264, #45, #98, #13 ) ) ;
#31 =( GEOMETRIC_REPRESENTATION_CONTEXT ( 3 ) GLOBAL_UNCERTAINTY_ASSIGNED_CONTEXT ( ( #257 ) ) GLOBAL_UNIT_ASSIGNED_CONTEXT ( ( #302, #88, #274 ) ) REPRESENTATION_CONTEXT ( 'NONE', 'WORKASPACE' ) );
#32 = EDGE_LOOP ( 'NONE', ( #220, #213, #56, #350 ) ) ;
#33 = VECTOR ( 'NONE', #329, 1000.000000000000000 ) ;
#34 = DIRECTION ( 'NONE',  ( -1.000000000000000000, -0.0000000000000000000, -0.0000000000000000000 ) ) ;
#35 = AXIS2_PLACEMENT_3D ( 'NONE', #177, #356, #151 ) ;
#36 = CARTESIAN_POINT ( 'NONE',  ( 3.000000000000000000, 0.0000000000000000000, 37.50000000000000000 ) ) ;
#37 = CARTESIAN_POINT ( 'NONE',  ( 30.00000000000000000, 0.0000000000000000000, -27.49999999999999300 ) ) ;
#38 = DIRECTION ( 'NONE',  ( -1.000000000000000000, -0.0000000000000000000, -0.0000000000000000000 ) ) ;
#39 = FACE_BOUND ( 'NONE', #15, .T. ) ;
#40 = VERTEX_POINT ( 'NONE', #348 ) ;
#41 = DIRECTION ( 'NONE',  ( 0.0000000000000000000, 0.0000000000000000000, 1.000000000000000000 ) ) ;
#42 = AXIS2_PLACEMENT_3D ( 'NONE', #6, #190, #373 ) ;
#43 = VERTEX_POINT ( 'NONE', #86 ) ;
#44 = DIRECTION ( 'NONE',  ( -1.000000000000000000, -0.0000000000000000000, -0.0000000000000000000 ) ) ;
#45 = ORIENTED_EDGE ( 'NONE', *, *, #138, .T. ) ;
#46 = CYLINDRICAL_SURFACE ( 'NONE', #85, 26.19999999999999600 ) ;
#47 = EDGE_CURVE ( 'NONE', #226, #346, #285, .T. ) ;
#48 = DIRECTION ( 'NONE',  ( -1.000000000000000000, -0.0000000000000000000, -0.0000000000000000000 ) ) ;
#49 = ORIENTED_EDGE ( 'NONE', *, *, #365, .F. ) ;
#50 = AXIS2_PLACEMENT_3D ( 'NONE', #107, #383, #206 ) ;
#51 = CIRCLE ( 'NONE', #245, 27.50000000000000000 ) ;
#52 = DIRECTION ( 'NONE',  ( -1.000000000000000000, -0.0000000000000000000, -0.0000000000000000000 ) ) ;
#53 = VERTEX_POINT ( 'NONE', #202 ) ;
#54 = ADVANCED_FACE ( 'NONE', ( #125 ), #196, .F. ) ;
#55 = FACE_OUTER_BOUND ( 'NONE', #30, .T. ) ;
#56 = ORIENTED_EDGE ( 'NONE', *, *, #368, .F. ) ;
#57 = VERTEX_POINT ( 'NONE', #17 ) ;
#58 = DIRECTION ( 'NONE',  ( 0.0000000000000000000, 0.0000000000000000000, 1.000000000000000000 ) ) ;
#59 = DIRECTION ( 'NONE',  ( 0.0000000000000000000, 0.0000000000000000000, 1.000000000000000000 ) ) ;
#60 = EDGE_LOOP ( 'NONE', ( #152, #243 ) ) ;
#61 = CARTESIAN_POINT ( 'NONE',  ( 30.00000000000000000, 0.0000000000000000000, 0.0000000000000000000 ) ) ;
#62 = EDGE_CURVE ( 'NONE', #266, #111, #205, .T. ) ;
#63 = CYLINDRICAL_SURFACE ( 'NONE', #203, 27.49999999999999600 ) ;
#64 = CARTESIAN_POINT ( 'NONE',  ( 3.000000000000000000, 4.592425496802574400E-015, -37.50000000000000000 ) ) ;
#65 = ORIENTED_EDGE ( 'NONE', *, *, #294, .F. ) ;
#66 = AXIS2_PLACEMENT_3D ( 'NONE', #387, #296, #27 ) ;
#67 =( NAMED_UNIT ( * ) PLANE_ANGLE_UNIT ( ) SI_UNIT ( $, .RADIAN. ) );
#68 = CARTESIAN_POINT ( 'NONE',  ( 2.500000000000002200, 0.0000000000000000000, -25.00000000000000000 ) ) ;
#69 = DIRECTION ( 'NONE',  ( -0.2588190451025215200, 0.0000000000000000000, 0.9659258262890679800 ) ) ;
#70 = ORIENTED_EDGE ( 'NONE', *, *, #332, .T. ) ;
#71 = VECTOR ( 'NONE', #163, 1000.000000000000000 ) ;
#72 = EDGE_LOOP ( 'NONE', ( #184, #286, #337, #275 ) ) ;
#73 = AXIS2_PLACEMENT_3D ( 'NONE', #320, #44, #194 ) ;
#74 = DIRECTION ( 'NONE',  ( -1.000000000000000000, -0.0000000000000000000, -0.0000000000000000000 ) ) ;
#75 = ADVANCED_FACE ( 'NONE', ( #352 ), #343, .T. ) ;
#76 = LINE ( 'NONE', #140, #388 ) ;
#77 = DIRECTION ( 'NONE',  ( -1.000000000000000000, -0.0000000000000000000, -0.0000000000000000000 ) ) ;
#78 = EDGE_LOOP ( 'NONE', ( #309, #3, #193, #108 ) ) ;
#79 = ADVANCED_FACE ( 'NONE', ( #276, #267 ), #8, .F. ) ;
#80 = AXIS2_PLACEMENT_3D ( 'NONE', #104, #209, #58 ) ;
#81 = EDGE_CURVE ( 'NONE', #53, #57, #185, .T. ) ;
#82 = FACE_OUTER_BOUND ( 'NONE', #32, .T. ) ;
#83 = EDGE_LOOP ( 'NONE', ( #299, #161, #103, #49 ) ) ;
#84 = DIRECTION ( 'NONE',  ( 0.0000000000000000000, 0.0000000000000000000, 1.000000000000000000 ) ) ;
#85 = AXIS2_PLACEMENT_3D ( 'NONE', #115, #52, #145 ) ;
#86 = CARTESIAN_POINT ( 'NONE',  ( 2.500000000000002200, 0.0000000000000000000, 25.00000000000000000 ) ) ;
#87 = EDGE_LOOP ( 'NONE', ( #258, #128, #195, #297 ) ) ;
#88 =( NAMED_UNIT ( * ) PLANE_ANGLE_UNIT ( ) SI_UNIT ( $, .RADIAN. ) );
#89 = EDGE_CURVE ( 'NONE', #251, #272, #361, .T. ) ;
#90 = CIRCLE ( 'NONE', #234, 37.50000000000000000 ) ;
#91 = AXIS2_PLACEMENT_3D ( 'NONE', #92, #246, #29 ) ;
#92 = CARTESIAN_POINT ( 'NONE',  ( 0.0000000000000000000, 0.0000000000000000000, 0.0000000000000000000 ) ) ;
#93 = DIRECTION ( 'NONE',  ( 0.0000000000000000000, 0.0000000000000000000, 1.000000000000000000 ) ) ;
#94 = CIRCLE ( 'NONE', #392, 25.00000000000000000 ) ;
#95 = CARTESIAN_POINT ( 'NONE',  ( 0.0000000000000000000, 3.061616997868383000E-015, -25.00000000000000000 ) ) ;
#96 = ORIENTED_EDGE ( 'NONE', *, *, #355, .F. ) ;
#97 = DIRECTION ( 'NONE',  ( 0.0000000000000000000, 0.0000000000000000000, 1.000000000000000000 ) ) ;
#98 = ORIENTED_EDGE ( 'NONE', *, *, #62, .T. ) ;
#99 = DIRECTION ( 'NONE',  ( -0.0000000000000000000, 0.0000000000000000000, 1.000000000000000000 ) ) ;
#100 = AXIS2_PLACEMENT_3D ( 'NONE', #37, #312, #99 ) ;
#101 = LINE ( 'NONE', #269, #331 ) ;
#102 = FILL_AREA_STYLE ('',( #168 ) ) ;
#103 = ORIENTED_EDGE ( 'NONE', *, *, #153, .F. ) ;
#104 = CARTESIAN_POINT ( 'NONE',  ( 0.0000000000000000000, 0.0000000000000000000, 0.0000000000000000000 ) ) ;
#105 = DIRECTION ( 'NONE',  ( 1.000000000000000000, 0.0000000000000000000, 0.0000000000000000000 ) ) ;
#106 = ADVANCED_FACE ( 'NONE', ( #22 ), #340, .T. ) ;
#107 = CARTESIAN_POINT ( 'NONE',  ( 0.0000000000000000000, 0.0000000000000000000, 0.0000000000000000000 ) ) ;
#108 = ORIENTED_EDGE ( 'NONE', *, *, #379, .T. ) ;
#109 = EDGE_CURVE ( 'NONE', #40, #282, #335, .T. ) ;
#110 = CIRCLE ( 'NONE', #158, 27.49999999999999300 ) ;
#111 = VERTEX_POINT ( 'NONE', #146 ) ;
#112 = DIRECTION ( 'NONE',  ( -1.000000000000000000, -0.0000000000000000000, -0.0000000000000000000 ) ) ;
#113 = ORIENTED_EDGE ( 'NONE', *, *, #62, .F. ) ;
#114 = VECTOR ( 'NONE', #288, 1000.000000000000100 ) ;
#115 = CARTESIAN_POINT ( 'NONE',  ( 0.0000000000000000000, 0.0000000000000000000, 0.0000000000000000000 ) ) ;
#116 = PRODUCT_DEFINITION ( 'UNKNOWN', '', #137, #179 ) ;
#117 = CARTESIAN_POINT ( 'NONE',  ( 0.0000000000000000000, 0.0000000000000000000, 25.00000000000000000 ) ) ;
#118 = DIRECTION ( 'NONE',  ( 0.0000000000000000000, 0.0000000000000000000, 1.000000000000000000 ) ) ;
#119 = EDGE_CURVE ( 'NONE', #40, #57, #191, .T. ) ;
#120 = VECTOR ( 'NONE', #157, 1000.000000000000000 ) ;
#121 = AXIS2_PLACEMENT_3D ( 'NONE', #130, #310, #97 ) ;
#122 = EDGE_LOOP ( 'NONE', ( #308, #283 ) ) ;
#123 = SURFACE_STYLE_USAGE ( .BOTH. , #333 ) ;
#124 = EDGE_LOOP ( 'NONE', ( #175, #113 ) ) ;
#125 = FACE_OUTER_BOUND ( 'NONE', #78, .T. ) ;
#126 = EDGE_CURVE ( 'NONE', #282, #139, #28, .T. ) ;
#127 = CARTESIAN_POINT ( 'NONE',  ( 5.679491924311235200, 0.0000000000000000000, 0.0000000000000000000 ) ) ;
#128 = ORIENTED_EDGE ( 'NONE', *, *, #126, .T. ) ;
#129 = LINE ( 'NONE', #95, #212 ) ;
#130 = CARTESIAN_POINT ( 'NONE',  ( 3.000000000000000000, 0.0000000000000000000, 0.0000000000000000000 ) ) ;
#131 = ORIENTED_EDGE ( 'NONE', *, *, #126, .F. ) ;
#132 = PLANE ( 'NONE',  #100 ) ;
#133 = EDGE_CURVE ( 'NONE', #232, #53, #110, .T. ) ;
#134 = PRODUCT ( '433-KF50-TS', '433-KF50-TS', '', ( #216 ) ) ;
#135 = CARTESIAN_POINT ( 'NONE',  ( 0.0000000000000000000, 3.367778697655220900E-015, -27.49999999999999600 ) ) ;
#136 = ORIENTED_EDGE ( 'NONE', *, *, #81, .T. ) ;
#137 = PRODUCT_DEFINITION_FORMATION_WITH_SPECIFIED_SOURCE ( 'ANY', '', #134, .NOT_KNOWN. ) ;
#138 = EDGE_CURVE ( 'NONE', #226, #266, #101, .T. ) ;
#139 = VERTEX_POINT ( 'NONE', #238 ) ;
#140 = CARTESIAN_POINT ( 'NONE',  ( 0.0000000000000000000, 0.0000000000000000000, 26.19999999999999600 ) ) ;
#141 = CIRCLE ( 'NONE', #180, 37.50000000000000000 ) ;
#142 = DIRECTION ( 'NONE',  ( -1.000000000000000000, -0.0000000000000000000, -0.0000000000000000000 ) ) ;
#143 = ORIENTED_EDGE ( 'NONE', *, *, #154, .F. ) ;
#144 = ADVANCED_FACE ( 'NONE', ( #261 ), #9, .T. ) ;
#145 = DIRECTION ( 'NONE',  ( 0.0000000000000000000, 0.0000000000000000000, 1.000000000000000000 ) ) ;
#146 = CARTESIAN_POINT ( 'NONE',  ( 0.0000000000000000000, 0.0000000000000000000, 26.19999999999999600 ) ) ;
#147 = AXIS2_PLACEMENT_3D ( 'NONE', #5, #189, #371 ) ;
#148 = SURFACE_STYLE_FILL_AREA ( #155 ) ;
#149 = CARTESIAN_POINT ( 'NONE',  ( 30.00000000000000000, 0.0000000000000000000, 0.0000000000000000000 ) ) ;
#150 = CIRCLE ( 'NONE', #147, 27.49999999999999300 ) ;
#151 = DIRECTION ( 'NONE',  ( 0.0000000000000000000, 0.0000000000000000000, 1.000000000000000000 ) ) ;
#152 = ORIENTED_EDGE ( 'NONE', *, *, #314, .F. ) ;
#153 = EDGE_CURVE ( 'NONE', #380, #282, #90, .T. ) ;
#154 = EDGE_CURVE ( 'NONE', #139, #318, #255, .T. ) ;
#155 = FILL_AREA_STYLE ('',( #363 ) ) ;
#156 = PRODUCT_RELATED_PRODUCT_CATEGORY ( 'part', '', ( #134 ) ) ;
#157 = DIRECTION ( 'NONE',  ( -1.000000000000000000, -0.0000000000000000000, -0.0000000000000000000 ) ) ;
#158 = AXIS2_PLACEMENT_3D ( 'NONE', #61, #112, #265 ) ;
#159 = CYLINDRICAL_SURFACE ( 'NONE', #80, 27.49999999999999600 ) ;
#160 = DIRECTION ( 'NONE',  ( -1.000000000000000000, -0.0000000000000000000, -0.0000000000000000000 ) ) ;
#161 = ORIENTED_EDGE ( 'NONE', *, *, #109, .T. ) ;
#162 = DIRECTION ( 'NONE',  ( -1.000000000000000000, -0.0000000000000000000, -0.0000000000000000000 ) ) ;
#163 = DIRECTION ( 'NONE',  ( -1.000000000000000000, -0.0000000000000000000, -0.0000000000000000000 ) ) ;
#164 = AXIS2_PLACEMENT_3D ( 'NONE', #367, #160, #338 ) ;
#165 = FACE_OUTER_BOUND ( 'NONE', #60, .T. ) ;
#166 = EDGE_LOOP ( 'NONE', ( #304, #290, #136, #201 ) ) ;
#167 = DIRECTION ( 'NONE',  ( 0.0000000000000000000, 0.0000000000000000000, 1.000000000000000000 ) ) ;
#168 = FILL_AREA_STYLE_COLOUR ( '', #170 ) ;
#169 = CARTESIAN_POINT ( 'NONE',  ( 5.679491924311235200, 0.0000000000000000000, 0.0000000000000000000 ) ) ;
#170 = COLOUR_RGB ( '',0.8980392156862745400, 0.8980392156862745400, 0.8980392156862745400 ) ;
#171 = DIRECTION ( 'NONE',  ( 0.0000000000000000000, 0.0000000000000000000, 1.000000000000000000 ) ) ;
#172 = CARTESIAN_POINT ( 'NONE',  ( 0.0000000000000000000, 0.0000000000000000000, 0.0000000000000000000 ) ) ;
#173 = FACE_BOUND ( 'NONE', #229, .T. ) ;
#174 = MANIFOLD_SOLID_BREP ( 'Rotation1', #20 ) ;
#175 = ORIENTED_EDGE ( 'NONE', *, *, #379, .F. ) ;
#176 = CARTESIAN_POINT ( 'NONE',  ( 30.00000000000000000, 3.367778697655220500E-015, -27.49999999999999300 ) ) ;
#177 = CARTESIAN_POINT ( 'NONE',  ( 5.679491924311235200, 0.0000000000000000000, 0.0000000000000000000 ) ) ;
#178 = SHAPE_DEFINITION_REPRESENTATION ( #7, #344 ) ;
#179 = PRODUCT_DEFINITION_CONTEXT ( 'detailed design', #393, 'design' ) ;
#180 = AXIS2_PLACEMENT_3D ( 'NONE', #252, #38, #222 ) ;
#181 = APPLICATION_PROTOCOL_DEFINITION ( 'draft international standard', 'automotive_design', 1998, #393 ) ;
#182 = VECTOR ( 'NONE', #375, 1000.000000000000000 ) ;
#183 = APPLICATION_CONTEXT ( 'automotive_design' ) ;
#184 = ORIENTED_EDGE ( 'NONE', *, *, #214, .F. ) ;
#185 = LINE ( 'NONE', #391, #33 ) ;
#186 = EDGE_CURVE ( 'NONE', #346, #226, #336, .T. ) ;
#187 = DIRECTION ( 'NONE',  ( 1.000000000000000000, 0.0000000000000000000, 0.0000000000000000000 ) ) ;
#188 = UNCERTAINTY_MEASURE_WITH_UNIT (LENGTH_MEASURE( 1.000000000000000100E-005 ), #378, 'distance_accuracy_value', 'NONE');
#189 = DIRECTION ( 'NONE',  ( -1.000000000000000000, -0.0000000000000000000, -0.0000000000000000000 ) ) ;
#190 = DIRECTION ( 'NONE',  ( -1.000000000000000000, -0.0000000000000000000, -0.0000000000000000000 ) ) ;
#191 = CIRCLE ( 'NONE', #35, 27.50000000000000000 ) ;
#192 = AXIS2_PLACEMENT_3D ( 'NONE', #230, #321, #167 ) ;
#193 = ORIENTED_EDGE ( 'NONE', *, *, #273, .T. ) ;
#194 = DIRECTION ( 'NONE',  ( 0.0000000000000000000, 0.0000000000000000000, 1.000000000000000000 ) ) ;
#195 = ORIENTED_EDGE ( 'NONE', *, *, #332, .F. ) ;
#196 = CYLINDRICAL_SURFACE ( 'NONE', #50, 26.19999999999999600 ) ;
#197 = CARTESIAN_POINT ( 'NONE',  ( 30.00000000000000000, 3.061616997868383000E-015, -25.00000000000000000 ) ) ;
#198 = FACE_OUTER_BOUND ( 'NONE', #122, .T. ) ;
#199 = ADVANCED_FACE ( 'NONE', ( #24 ), #326, .F. ) ;
#200 = CARTESIAN_POINT ( 'NONE',  ( 5.679491924311235200, 3.367778697655221300E-015, -27.50000000000000000 ) ) ;
#201 = ORIENTED_EDGE ( 'NONE', *, *, #119, .F. ) ;
#202 = CARTESIAN_POINT ( 'NONE',  ( 30.00000000000000000, 0.0000000000000000000, 27.49999999999999300 ) ) ;
#203 = AXIS2_PLACEMENT_3D ( 'NONE', #225, #162, #41 ) ;
#204 = EDGE_LOOP ( 'NONE', ( #96, #342, #210, #26 ) ) ;
#205 = CIRCLE ( 'NONE', #73, 26.19999999999999600 ) ;
#206 = DIRECTION ( 'NONE',  ( 0.0000000000000000000, 0.0000000000000000000, 1.000000000000000000 ) ) ;
#207 = DIRECTION ( 'NONE',  ( -1.000000000000000000, -0.0000000000000000000, -0.0000000000000000000 ) ) ;
#208 = DIRECTION ( 'NONE',  ( -1.000000000000000000, -0.0000000000000000000, -0.0000000000000000000 ) ) ;
#209 = DIRECTION ( 'NONE',  ( -1.000000000000000000, -0.0000000000000000000, -0.0000000000000000000 ) ) ;
#210 = ORIENTED_EDGE ( 'NONE', *, *, #215, .T. ) ;
#211 = DIRECTION ( 'NONE',  ( -1.000000000000000000, -0.0000000000000000000, -0.0000000000000000000 ) ) ;
#212 = VECTOR ( 'NONE', #305, 1000.000000000000000 ) ;
#213 = ORIENTED_EDGE ( 'NONE', *, *, #300, .T. ) ;
#214 = EDGE_CURVE ( 'NONE', #272, #251, #94, .T. ) ;
#215 = EDGE_CURVE ( 'NONE', #251, #43, #11, .T. ) ;
#216 = PRODUCT_CONTEXT ( 'NONE', #183, 'mechanical' ) ;
#217 = EDGE_LOOP ( 'NONE', ( #389, #359, #390, #328 ) ) ;
#218 = APPLICATION_PROTOCOL_DEFINITION ( 'draft international standard', 'automotive_design', 1998, #183 ) ;
#219 = DIRECTION ( 'NONE',  ( 0.0000000000000000000, 0.0000000000000000000, 1.000000000000000000 ) ) ;
#220 = ORIENTED_EDGE ( 'NONE', *, *, #314, .T. ) ;
#221 = AXIS2_PLACEMENT_3D ( 'NONE', #224, #105, #291 ) ;
#222 = DIRECTION ( 'NONE',  ( 0.0000000000000000000, 0.0000000000000000000, 1.000000000000000000 ) ) ;
#223 = FACE_OUTER_BOUND ( 'NONE', #166, .T. ) ;
#224 = CARTESIAN_POINT ( 'NONE',  ( 0.0000000000000000000, 0.0000000000000000000, -26.19999999999999600 ) ) ;
#225 = CARTESIAN_POINT ( 'NONE',  ( 0.0000000000000000000, 0.0000000000000000000, 0.0000000000000000000 ) ) ;
#226 = VERTEX_POINT ( 'NONE', #353 ) ;
#227 = AXIS2_PLACEMENT_3D ( 'NONE', #307, #74, #2 ) ;
#228 = DIRECTION ( 'NONE',  ( 0.0000000000000000000, 0.0000000000000000000, 1.000000000000000000 ) ) ;
#229 = EDGE_LOOP ( 'NONE', ( #341, #253 ) ) ;
#230 = CARTESIAN_POINT ( 'NONE',  ( 30.00000000000000000, 0.0000000000000000000, 0.0000000000000000000 ) ) ;
#231 = LINE ( 'NONE', #135, #71 ) ;
#232 = VERTEX_POINT ( 'NONE', #176 ) ;
#233 = UNCERTAINTY_MEASURE_WITH_UNIT (LENGTH_MEASURE( 1.000000000000000100E-005 ), #277, 'distance_accuracy_value', 'NONE');
#234 = AXIS2_PLACEMENT_3D ( 'NONE', #374, #77, #171 ) ;
#235 = ADVANCED_FACE ( 'NONE', ( #256 ), #316, .F. ) ;
#236 = DIRECTION ( 'NONE',  ( -1.000000000000000000, -0.0000000000000000000, -0.0000000000000000000 ) ) ;
#237 = DIRECTION ( 'NONE',  ( 0.0000000000000000000, 0.0000000000000000000, 1.000000000000000000 ) ) ;
#238 = CARTESIAN_POINT ( 'NONE',  ( 0.0000000000000000000, 4.592425496802574400E-015, -37.50000000000000000 ) ) ;
#239 = CARTESIAN_POINT ( 'NONE',  ( 0.0000000000000000000, 0.0000000000000000000, 0.0000000000000000000 ) ) ;
#240 = CARTESIAN_POINT ( 'NONE',  ( 2.500000000000002200, 3.061616997868383000E-015, -25.00000000000000000 ) ) ;
#241 =( NAMED_UNIT ( * ) PLANE_ANGLE_UNIT ( ) SI_UNIT ( $, .RADIAN. ) );
#242 = CIRCLE ( 'NONE', #121, 37.50000000000000000 ) ;
#243 = ORIENTED_EDGE ( 'NONE', *, *, #133, .F. ) ;
#244 = CARTESIAN_POINT ( 'NONE',  ( 0.0000000000000000000, 4.592425496802574400E-015, -37.50000000000000000 ) ) ;
#245 = AXIS2_PLACEMENT_3D ( 'NONE', #127, #303, #93 ) ;
#246 = DIRECTION ( 'NONE',  ( 0.0000000000000000000, 0.0000000000000000000, 1.000000000000000000 ) ) ;
#247 =( NAMED_UNIT ( * ) SI_UNIT ( $, .STERADIAN. ) SOLID_ANGLE_UNIT ( ) );
#248 = CARTESIAN_POINT ( 'NONE',  ( 0.0000000000000000000, 0.0000000000000000000, 0.0000000000000000000 ) ) ;
#249 = VECTOR ( 'NONE', #325, 1000.000000000000000 ) ;
#250 = CARTESIAN_POINT ( 'NONE',  ( 5.679491924311235200, 0.0000000000000000000, 27.50000000000000000 ) ) ;
#251 = VERTEX_POINT ( 'NONE', #268 ) ;
#252 = CARTESIAN_POINT ( 'NONE',  ( 0.0000000000000000000, 0.0000000000000000000, 0.0000000000000000000 ) ) ;
#253 = ORIENTED_EDGE ( 'NONE', *, *, #214, .T. ) ;
#254 = AXIS2_PLACEMENT_3D ( 'NONE', #172, #385, #84 ) ;
#255 = CIRCLE ( 'NONE', #281, 37.50000000000000000 ) ;
#256 = FACE_OUTER_BOUND ( 'NONE', #72, .T. ) ;
#257 = UNCERTAINTY_MEASURE_WITH_UNIT (LENGTH_MEASURE( 1.000000000000000100E-005 ), #302, 'distance_accuracy_value', 'NONE');
#258 = ORIENTED_EDGE ( 'NONE', *, *, #153, .T. ) ;
#259 = SURFACE_SIDE_STYLE ('',( #324 ) ) ;
#260 = ADVANCED_FACE ( 'NONE', ( #82 ), #159, .T. ) ;
#261 = FACE_OUTER_BOUND ( 'NONE', #87, .T. ) ;
#262 = CARTESIAN_POINT ( 'NONE',  ( 0.0000000000000000000, 0.0000000000000000000, 0.0000000000000000000 ) ) ;
#263 = AXIS2_PLACEMENT_3D ( 'NONE', #248, #34, #219 ) ;
#264 = ORIENTED_EDGE ( 'NONE', *, *, #47, .F. ) ;
#265 = DIRECTION ( 'NONE',  ( 0.0000000000000000000, 0.0000000000000000000, 1.000000000000000000 ) ) ;
#266 = VERTEX_POINT ( 'NONE', #317 ) ;
#267 = FACE_OUTER_BOUND ( 'NONE', #372, .T. ) ;
#268 = CARTESIAN_POINT ( 'NONE',  ( 30.00000000000000000, 0.0000000000000000000, 25.00000000000000000 ) ) ;
#269 = CARTESIAN_POINT ( 'NONE',  ( 0.0000000000000000000, 3.208574613766064900E-015, -26.19999999999999600 ) ) ;
#270 =( NAMED_UNIT ( * ) SI_UNIT ( $, .STERADIAN. ) SOLID_ANGLE_UNIT ( ) );
#271 = STYLED_ITEM ( 'NONE', ( #19 ), #174 ) ;
#272 = VERTEX_POINT ( 'NONE', #197 ) ;
#273 = EDGE_CURVE ( 'NONE', #346, #111, #76, .T. ) ;
#274 =( NAMED_UNIT ( * ) SI_UNIT ( $, .STERADIAN. ) SOLID_ANGLE_UNIT ( ) );
#275 = ORIENTED_EDGE ( 'NONE', *, *, #215, .F. ) ;
#276 = FACE_BOUND ( 'NONE', #124, .T. ) ;
#277 =( LENGTH_UNIT ( ) NAMED_UNIT ( * ) SI_UNIT ( .MILLI., .METRE. ) );
#278 = CARTESIAN_POINT ( 'NONE',  ( 2.500000000000002200, 0.0000000000000000000, 26.19999999999999600 ) ) ;
#279 = LINE ( 'NONE', #334, #120 ) ;
#280 = CARTESIAN_POINT ( 'NONE',  ( 0.0000000000000000000, 0.0000000000000000000, 37.50000000000000000 ) ) ;
#281 = AXIS2_PLACEMENT_3D ( 'NONE', #239, #21, #12 ) ;
#282 = VERTEX_POINT ( 'NONE', #64 ) ;
#283 = ORIENTED_EDGE ( 'NONE', *, *, #47, .T. ) ;
#284 = VERTEX_POINT ( 'NONE', #240 ) ;
#285 = CIRCLE ( 'NONE', #14, 26.19999999999999600 ) ;
#286 = ORIENTED_EDGE ( 'NONE', *, *, #355, .T. ) ;
#287 = CIRCLE ( 'NONE', #263, 26.19999999999999600 ) ;
#288 = DIRECTION ( 'NONE',  ( -0.2588190451025215200, 1.182917971378669300E-016, -0.9659258262890679800 ) ) ;
#289 = ADVANCED_FACE ( 'NONE', ( #165, #173 ), #132, .F. ) ;
#290 = ORIENTED_EDGE ( 'NONE', *, *, #133, .T. ) ;
#291 = DIRECTION ( 'NONE',  ( 0.0000000000000000000, 0.0000000000000000000, -1.000000000000000000 ) ) ;
#292 = PRESENTATION_LAYER_ASSIGNMENT (  '', '', ( #271 ) ) ;
#293 = CARTESIAN_POINT ( 'NONE',  ( 2.500000000000002200, 0.0000000000000000000, 0.0000000000000000000 ) ) ;
#294 = EDGE_CURVE ( 'NONE', #284, #43, #1, .T. ) ;
#295 = EDGE_CURVE ( 'NONE', #282, #380, #242, .T. ) ;
#296 = DIRECTION ( 'NONE',  ( -1.000000000000000000, -0.0000000000000000000, -0.0000000000000000000 ) ) ;
#297 = ORIENTED_EDGE ( 'NONE', *, *, #394, .F. ) ;
#298 = LINE ( 'NONE', #250, #377 ) ;
#299 = ORIENTED_EDGE ( 'NONE', *, *, #368, .T. ) ;
#300 = EDGE_CURVE ( 'NONE', #232, #40, #231, .T. ) ;
#301 =( GEOMETRIC_REPRESENTATION_CONTEXT ( 3 ) GLOBAL_UNCERTAINTY_ASSIGNED_CONTEXT ( ( #233 ) ) GLOBAL_UNIT_ASSIGNED_CONTEXT ( ( #277, #67, #247 ) ) REPRESENTATION_CONTEXT ( 'NONE', 'WORKASPACE' ) );
#302 =( LENGTH_UNIT ( ) NAMED_UNIT ( * ) SI_UNIT ( .MILLI., .METRE. ) );
#303 = DIRECTION ( 'NONE',  ( -1.000000000000000000, -0.0000000000000000000, -0.0000000000000000000 ) ) ;
#304 = ORIENTED_EDGE ( 'NONE', *, *, #300, .F. ) ;
#305 = DIRECTION ( 'NONE',  ( -1.000000000000000000, -0.0000000000000000000, -0.0000000000000000000 ) ) ;
#306 = CIRCLE ( 'NONE', #164, 25.00000000000000000 ) ;
#307 = CARTESIAN_POINT ( 'NONE',  ( 5.679491924311235200, 0.0000000000000000000, 0.0000000000000000000 ) ) ;
#308 = ORIENTED_EDGE ( 'NONE', *, *, #186, .T. ) ;
#309 = ORIENTED_EDGE ( 'NONE', *, *, #138, .F. ) ;
#310 = DIRECTION ( 'NONE',  ( -1.000000000000000000, -0.0000000000000000000, -0.0000000000000000000 ) ) ;
#311 = MECHANICAL_DESIGN_GEOMETRIC_PRESENTATION_REPRESENTATION (  '', ( #271 ), #330 ) ;
#312 = DIRECTION ( 'NONE',  ( -1.000000000000000000, 0.0000000000000000000, -0.0000000000000000000 ) ) ;
#313 = SURFACE_STYLE_USAGE ( .BOTH. , #259 ) ;
#314 = EDGE_CURVE ( 'NONE', #53, #232, #150, .T. ) ;
#315 = DIRECTION ( 'NONE',  ( -1.000000000000000000, -0.0000000000000000000, -0.0000000000000000000 ) ) ;
#316 = CYLINDRICAL_SURFACE ( 'NONE', #66, 25.00000000000000000 ) ;
#317 = CARTESIAN_POINT ( 'NONE',  ( 0.0000000000000000000, 3.208574613766064900E-015, -26.19999999999999600 ) ) ;
#318 = VERTEX_POINT ( 'NONE', #280 ) ;
#319 = AXIS2_PLACEMENT_3D ( 'NONE', #169, #211, #382 ) ;
#320 = CARTESIAN_POINT ( 'NONE',  ( 0.0000000000000000000, 0.0000000000000000000, 0.0000000000000000000 ) ) ;
#321 = DIRECTION ( 'NONE',  ( -1.000000000000000000, -0.0000000000000000000, -0.0000000000000000000 ) ) ;
#322 = ADVANCED_FACE ( 'NONE', ( #223 ), #63, .T. ) ;
#323 = AXIS2_PLACEMENT_3D ( 'NONE', #68, #187, #364 ) ;
#324 = SURFACE_STYLE_FILL_AREA ( #102 ) ;
#325 = DIRECTION ( 'NONE',  ( -1.000000000000000000, -0.0000000000000000000, -0.0000000000000000000 ) ) ;
#326 = CYLINDRICAL_SURFACE ( 'NONE', #18, 25.00000000000000000 ) ;
#327 = DIRECTION ( 'NONE',  ( -1.000000000000000000, -0.0000000000000000000, -0.0000000000000000000 ) ) ;
#328 = ORIENTED_EDGE ( 'NONE', *, *, #295, .F. ) ;
#329 = DIRECTION ( 'NONE',  ( -1.000000000000000000, -0.0000000000000000000, -0.0000000000000000000 ) ) ;
#330 =( GEOMETRIC_REPRESENTATION_CONTEXT ( 3 ) GLOBAL_UNCERTAINTY_ASSIGNED_CONTEXT ( ( #188 ) ) GLOBAL_UNIT_ASSIGNED_CONTEXT ( ( #378, #241, #270 ) ) REPRESENTATION_CONTEXT ( 'NONE', 'WORKASPACE' ) );
#331 = VECTOR ( 'NONE', #315, 1000.000000000000000 ) ;
#332 = EDGE_CURVE ( 'NONE', #318, #139, #141, .T. ) ;
#333 = SURFACE_SIDE_STYLE ('',( #148 ) ) ;
#334 = CARTESIAN_POINT ( 'NONE',  ( 0.0000000000000000000, 0.0000000000000000000, 37.50000000000000000 ) ) ;
#335 = LINE ( 'NONE', #200, #114 ) ;
#336 = CIRCLE ( 'NONE', #349, 26.19999999999999600 ) ;
#337 = ORIENTED_EDGE ( 'NONE', *, *, #294, .T. ) ;
#338 = DIRECTION ( 'NONE',  ( 0.0000000000000000000, 0.0000000000000000000, 1.000000000000000000 ) ) ;
#339 = EDGE_CURVE ( 'NONE', #43, #284, #306, .T. ) ;
#340 = CONICAL_SURFACE ( 'NONE', #319, 27.50000000000000000, 1.308996938995746300 ) ;
#341 = ORIENTED_EDGE ( 'NONE', *, *, #89, .T. ) ;
#342 = ORIENTED_EDGE ( 'NONE', *, *, #89, .F. ) ;
#343 = CYLINDRICAL_SURFACE ( 'NONE', #4, 37.50000000000000000 ) ;
#344 = ADVANCED_BREP_SHAPE_REPRESENTATION ( '433-KF50-TS', ( #174, #91 ), #301 ) ;
#345 = COLOUR_RGB ( '',0.8980392156862745400, 0.8980392156862745400, 0.8980392156862745400 ) ;
#346 = VERTEX_POINT ( 'NONE', #278 ) ;
#347 = ADVANCED_FACE ( 'NONE', ( #370 ), #357, .T. ) ;
#348 = CARTESIAN_POINT ( 'NONE',  ( 5.679491924311235200, 3.980102097228897800E-015, -27.50000000000000000 ) ) ;
#349 = AXIS2_PLACEMENT_3D ( 'NONE', #25, #208, #386 ) ;
#350 = ORIENTED_EDGE ( 'NONE', *, *, #81, .F. ) ;
#351 = ORIENTED_EDGE ( 'NONE', *, *, #339, .F. ) ;
#352 = FACE_OUTER_BOUND ( 'NONE', #369, .T. ) ;
#353 = CARTESIAN_POINT ( 'NONE',  ( 2.500000000000002200, 3.208574613766064900E-015, -26.19999999999999600 ) ) ;
#354 = PRESENTATION_STYLE_ASSIGNMENT (( #123 ) ) ;
#355 = EDGE_CURVE ( 'NONE', #272, #284, #129, .T. ) ;
#356 = DIRECTION ( 'NONE',  ( -1.000000000000000000, -0.0000000000000000000, -0.0000000000000000000 ) ) ;
#357 = CONICAL_SURFACE ( 'NONE', #227, 27.50000000000000000, 1.308996938995746300 ) ;
#358 = ORIENTED_EDGE ( 'NONE', *, *, #154, .T. ) ;
#359 = ORIENTED_EDGE ( 'NONE', *, *, #119, .T. ) ;
#360 = ORIENTED_EDGE ( 'NONE', *, *, #295, .T. ) ;
#361 = CIRCLE ( 'NONE', #192, 25.00000000000000000 ) ;
#362 = STYLED_ITEM ( 'NONE', ( #354 ), #344 ) ;
#363 = FILL_AREA_STYLE_COLOUR ( '', #345 ) ;
#364 = DIRECTION ( 'NONE',  ( 0.0000000000000000000, 0.0000000000000000000, -1.000000000000000000 ) ) ;
#365 = EDGE_CURVE ( 'NONE', #57, #380, #298, .T. ) ;
#366 = PLANE ( 'NONE',  #323 ) ;
#367 = CARTESIAN_POINT ( 'NONE',  ( 2.500000000000002200, 0.0000000000000000000, 0.0000000000000000000 ) ) ;
#368 = EDGE_CURVE ( 'NONE', #57, #40, #51, .T. ) ;
#369 = EDGE_LOOP ( 'NONE', ( #131, #360, #376, #143 ) ) ;
#370 = FACE_OUTER_BOUND ( 'NONE', #83, .T. ) ;
#371 = DIRECTION ( 'NONE',  ( 0.0000000000000000000, 0.0000000000000000000, 1.000000000000000000 ) ) ;
#372 = EDGE_LOOP ( 'NONE', ( #70, #358 ) ) ;
#373 = DIRECTION ( 'NONE',  ( 0.0000000000000000000, 0.0000000000000000000, 1.000000000000000000 ) ) ;
#374 = CARTESIAN_POINT ( 'NONE',  ( 3.000000000000000000, 0.0000000000000000000, 0.0000000000000000000 ) ) ;
#375 = DIRECTION ( 'NONE',  ( -1.000000000000000000, -0.0000000000000000000, -0.0000000000000000000 ) ) ;
#376 = ORIENTED_EDGE ( 'NONE', *, *, #394, .T. ) ;
#377 = VECTOR ( 'NONE', #69, 1000.000000000000100 ) ;
#378 =( LENGTH_UNIT ( ) NAMED_UNIT ( * ) SI_UNIT ( .MILLI., .METRE. ) );
#379 = EDGE_CURVE ( 'NONE', #111, #266, #287, .T. ) ;
#380 = VERTEX_POINT ( 'NONE', #36 ) ;
#381 = ADVANCED_FACE ( 'NONE', ( #39, #198 ), #366, .F. ) ;
#382 = DIRECTION ( 'NONE',  ( 0.0000000000000000000, 0.0000000000000000000, 1.000000000000000000 ) ) ;
#383 = DIRECTION ( 'NONE',  ( -1.000000000000000000, -0.0000000000000000000, -0.0000000000000000000 ) ) ;
#384 = PRESENTATION_LAYER_ASSIGNMENT (  '', '', ( #362 ) ) ;
#385 = DIRECTION ( 'NONE',  ( -1.000000000000000000, -0.0000000000000000000, -0.0000000000000000000 ) ) ;
#386 = DIRECTION ( 'NONE',  ( 0.0000000000000000000, 0.0000000000000000000, 1.000000000000000000 ) ) ;
#387 = CARTESIAN_POINT ( 'NONE',  ( 0.0000000000000000000, 0.0000000000000000000, 0.0000000000000000000 ) ) ;
#388 = VECTOR ( 'NONE', #48, 1000.000000000000000 ) ;
#389 = ORIENTED_EDGE ( 'NONE', *, *, #109, .F. ) ;
#390 = ORIENTED_EDGE ( 'NONE', *, *, #365, .T. ) ;
#391 = CARTESIAN_POINT ( 'NONE',  ( 0.0000000000000000000, 0.0000000000000000000, 27.49999999999999600 ) ) ;
#392 = AXIS2_PLACEMENT_3D ( 'NONE', #149, #327, #118 ) ;
#393 = APPLICATION_CONTEXT ( 'automotive_design' ) ;
#394 = EDGE_CURVE ( 'NONE', #380, #318, #279, .T. ) ;
ENDSEC;
END-ISO-10303-21;
